  0
SECTION
  2
HEADER
  9
$ACADVER
  1
AC1009
  9
$INSBASE
 10
0.0
 20
0.0
 30
0.0
  9
$EXTMIN
 10
-474.6667
 20
-396.0
 30
0.0
  9
$EXTMAX
 10
474.6667
 20
396.0
 30
0.0
  9
$LIMMIN
 10
0.0
 20
0.0
  9
$LIMMAX
 10
0.0
 20
0.0
  9
$ORTHOMODE
 70
     0
  9
$REGENMODE
 70
     1
  9
$FILLMODE
 70
     1
  9
$QTEXTMODE
 70
     0
  9
$MIRRTEXT
 70
     1
  9
$DRAGMODE
 70
     2
  9
$LTSCALE
 40
96.0
  9
$OSMODE
 70
     0
  9
$ATTMODE
 70
     1
  9
$TEXTSIZE
 40
0.2
  9
$TRACEWID
 40
0.05
  9
$TEXTSTYLE
  7
STANDARD
  9
$CLAYER
  8
0
  9
$CELTYPE
  6
CONTINUOUS
  9
$CECOLOR
 62
   256
  9
$DIMSCALE
 40
1.0
  9
$DIMASZ
 40
0.18
  9
$DIMEXO
 40
0.0625
  9
$DIMDLI
 40
0.38
  9
$DIMRND
 40
0.0
  9
$DIMDLE
 40
0.0
  9
$DIMEXE
 40
0.18
  9
$DIMTP
 40
0.0
  9
$DIMTM
 40
0.0
  9
$DIMTXT
 40
0.18
  9
$DIMCEN
 40
0.09
  9
$DIMTSZ
 40
0.0
  9
$DIMTOL
 70
     0
  9
$DIMLIM
 70
     0
  9
$DIMTIH
 70
     1
  9
$DIMTOH
 70
     1
  9
$DIMSE1
 70
     0
  9
$DIMSE2
 70
     0
  9
$DIMTAD
 70
     0
  9
$DIMZIN
 70
     0
  9
$DIMBLK
  1

  9
$DIMASO
 70
     1
  9
$DIMSHO
 70
     1
  9
$DIMPOST
  1

  9
$DIMAPOST
  1

  9
$DIMALT
 70
     0
  9
$DIMALTD
 70
     2
  9
$DIMALTF
 40
25.4
  9
$DIMLFAC
 40
1.0
  9
$DIMTOFL
 70
     0
  9
$DIMTVP
 40
0.0
  9
$DIMTIX
 70
     0
  9
$DIMSOXD
 70
     0
  9
$DIMSAH
 70
     0
  9
$DIMBLK1
  1

  9
$DIMBLK2
  1

  9
$DIMSTYLE
  2
STANDARD
  9
$DIMCLRD
 70
     0
  9
$DIMCLRE
 70
     0
  9
$DIMCLRT
 70
     0
  9
$DIMTFAC
 40
1.0
  9
$DIMGAP
 40
0.09
  9
$LUNITS
 70
     3
  9
$LUPREC
 70
     4
  9
$AXISMODE
 70
     0
  9
$AXISUNIT
 10
0.0
 20
0.0
  9
$SKETCHINC
 40
0.1
  9
$FILLETRAD
 40
0.0
  9
$AUNITS
 70
     0
  9
$AUPREC
 70
     0
  9
$MENU
  1
acad
  9
$ELEVATION
 40
0.0
  9
$PELEVATION
 40
0.0
  9
$THICKNESS
 40
0.0
  9
$LIMCHECK
 70
     0
  9
$BLIPMODE
 70
     1
  9
$CHAMFERA
 40
0.0
  9
$CHAMFERB
 40
0.0
  9
$SKPOLY
 70
     0
  9
$TDCREATE
 40
2452457.599537037
  9
$TDUPDATE
 40
2452457.599537037
  9
$TDINDWG
 40
0.0000000000
  9
$TDUSRTIMER
 40
0.0000000000
  9
$USRTIMER
 70
     1
  9
$ANGBASE
 50
0.0
  9
$ANGDIR
 70
     0
  9
$PDMODE
 70
     0
  9
$PDSIZE
 40
0.0
  9
$PLINEWID
 40
0.0
  9
$COORDS
 70
     0
  9
$SPLFRAME
 70
     0
  9
$SPLINETYPE
 70
     6
  9
$SPLINESEGS
 70
     8
  9
$ATTDIA
 70
     0
  9
$ATTREQ
 70
     1
  9
$HANDLING
 70
     1
  9
$HANDSEED
  5
1A9
  9
$SURFTAB1
 70
     6
  9
$SURFTAB2
 70
     6
  9
$SURFTYPE
 70
     6
  9
$SURFU
 70
     6
  9
$SURFV
 70
     6
  9
$UCSNAME
  2

  9
$UCSORG
 10
0.0
 20
0.0
 30
0.0
  9
$UCSXDIR
 10
1.0
 20
0.0
 30
0.0
  9
$UCSYDIR
 10
0.0
 20
1.0
 30
0.0
  9
$PUCSNAME
  2

  9
$PUCSORG
 10
0.0
 20
0.0
 30
0.0
  9
$PUCSXDIR
 10
1.0
 20
0.0
 30
0.0
  9
$PUCSYDIR
 10
0.0
 20
1.0
 30
0.0
  9
$USERI1
 70
     0
  9
$USERI2
 70
     0
  9
$USERI3
 70
     0
  9
$USERI4
 70
     0
  9
$USERI5
 70
     0
  9
$USERR1
 40
0.0
  9
$USERR2
 40
0.0
  9
$USERR3
 40
0.0
  9
$USERR4
 40
0.0
  9
$USERR5
 40
0.0
  9
$WORLDVIEW
 70
     1
  9
$SHADEDGE
 70
     3
  9
$SHADEDIF
 70
    70
  9
$TILEMODE
 70
     1
  9
$MAXACTVP
 70
    16
  9
$PINSBASE
 10
0.0
 20
0.0
 30
0.0
  9
$PLIMCHECK
 70
     0
  9
$PEXTMIN
 10
1.000000E+20
 20
1.000000E+20
 30
1.000000E+20
  9
$PEXTMAX
 10
-1.000000E+20
 20
-1.000000E+20
 30
-1.000000E+20
  9
$PLIMMIN
 10
0.0
 20
0.0
  9
$PLIMMAX
 10
12.0
 20
9.0
  9
$UNITMODE
 70
     0
  9
$VISRETAIN
 70
     0
  9
$PLINEGEN
 70
     1
  9
$PSLTSCALE
 70
     0
  9
$TREEDEPTH
 70
  3020
  9
$DWGCODEPAGE
  3
dos850
  0
ENDSEC
  0
SECTION
  2
TABLES
  0
TABLE
  2
VPORT
 70
     1
  0
VPORT
  2
*ACTIVE
 70
     0
 10
0.0
 20
0.0
 11
1.0
 21
1.0
 12
0.0
 22
0.0
 13
0.0
 23
0.0
 14
1.0
 24
1.0
 15
0.0
 25
0.0
 16
0.0
 26
0.0
 36
1.0
 17
0.0
 27
0.0
 37
0.0
 40
792.0
 41
0.688564
 42
50.0
 43
0.0
 44
0.0
 50
0.0
 51
0.0
 71
     0
 72
   100
 73
     1
 74
     1
 75
     0
 76
     0
 77
     0
 78
     0
  0
ENDTAB
  0
TABLE
  2
LTYPE
 70
    11
  0
LTYPE
  2
CONTINUOUS
 70
     0
  3
Solid line
 72
    65
 73
     0
 40
0.0
  0
LTYPE
  2
MCDASH01
 70
     0
  3

 72
    65
 73
     2
 40
0.083328
 49
0.041656
 49
-0.041672
  0
LTYPE
  2
MCDASH02
 70
     0
  3

 72
    65
 73
     2
 40
0.138885
 49
0.097214
 49
-0.041672
  0
LTYPE
  2
MCDASH03
 70
     0
  3

 72
    65
 73
     2
 40
0.25
 49
0.208328
 49
-0.041672
  0
LTYPE
  2
MCDASH04
 70
     0
  3

 72
    65
 73
     2
 40
0.305542
 49
0.263885
 49
-0.041656
  0
LTYPE
  2
MCDASH05
 70
     0
  3

 72
    65
 73
     2
 40
0.041656
 49
0.013885
 49
-0.027771
  0
LTYPE
  2
MCDASH06
 70
     0
  3

 72
    65
 73
     4
 40
0.208328
 49
0.125
 49
-0.041656
 49
0.013885
 49
-0.027786
  0
LTYPE
  2
MCDASH07
 70
     0
  3

 72
    65
 73
     6
 40
0.375
 49
0.125
 49
-0.041656
 49
0.125
 49
-0.041672
 49
0.013885
 49
-0.027786
  0
LTYPE
  2
MCDASH08
 70
     0
  3

 72
    65
 73
     6
 40
0.25
 49
0.125
 49
-0.041656
 49
0.013885
 49
-0.027786
 49
0.013885
 49
-0.027786
  0
LTYPE
  2
MCDASH09
 70
     0
  3

 72
    65
 73
     4
 40
1.0
 49
0.75
 49
-0.055557
 49
0.138885
 49
-0.055557
  0
LTYPE
  2
MCDASH10
 70
     0
  3

 72
    65
 73
     6
 40
1.1875
 49
0.75
 49
-0.055557
 49
0.138885
 49
-0.055557
 49
0.125
 49
-0.0625
  0
ENDTAB
  0
TABLE
  2
LAYER
 70
    12
  0
LAYER
  2
0
 70
     0
 62
     7
  6
CONTINUOUS
  0
LAYER
  2
GRID
 70
    64
 62
     7
  6
CONTINUOUS
  0
LAYER
  2
FLOOR
 70
    64
 62
     7
  6
CONTINUOUS
  0
LAYER
  2
NOSE
 70
    64
 62
     7
  6
CONTINUOUS
  0
LAYER
  2
HEAD
 70
    64
 62
     7
  6
CONTINUOUS
  0
LAYER
  2
ARM
 70
    64
 62
     7
  6
CONTINUOUS
  0
LAYER
  2
TRACK
 70
    64
 62
     7
  6
CONTINUOUS
  0
LAYER
  2
TRAILER
 70
    64
 62
     7
  6
CONTINUOUS
  0
LAYER
  2
DOLLY
 70
    64
 62
     7
  6
CONTINUOUS
  0
LAYER
  2
KEY
 70
    64
 62
     7
  6
CONTINUOUS
  0
LAYER
  2
NOTES
 70
    64
 62
     7
  6
CONTINUOUS
  0
LAYER
  2
ARM-PLAN
 70
    64
 62
     7
  6
CONTINUOUS
  0
ENDTAB
  0
TABLE
  2
STYLE
 70
     1
  0
STYLE
  2
STANDARD
 70
     0
 40
0.0
 41
1.0
 50
0.0
 71
     0
 42
0.0
  3
txt
  4

  0
ENDTAB
  0
TABLE
  2
VIEW
 70
     0
  0
ENDTAB
  0
TABLE
  2
UCS
 70
     0
  0
ENDTAB
  0
TABLE
  2
APPID
 70
     1
  0
APPID
  2
ACAD
 70
     0
  0
ENDTAB
  0
TABLE
  2
DIMSTYLE
 70
     1
  0
DIMSTYLE
  2
STANDARD
 70
     0
  3

  4

  5

  6

  7

 40
1.0
 41
0.18
 42
0.0625
 43
0.38
 44
0.18
 45
0.0
 46
0.0
 47
0.0
 48
0.0
140
0.18
141
0.09
142
0.0
143
25.4
144
1.0
145
0.0
146
1.0
147
0.09
 71
     0
 72
     0
 73
     1
 74
     1
 75
     0
 76
     0
 77
     0
 78
     0
170
     0
171
     2
172
     0
173
     0
174
     0
175
     0
176
     0
177
     0
178
     0
  0
ENDTAB
  0
ENDSEC
  0
SECTION
  2
BLOCKS
  0
ENDSEC
  0
SECTION
  2
ENTITIES
  0
LINE
  8
GRID
  6
CONTINUOUS
 62
     9
  5
35
 10
346.0
 20
360.0
 30
0.0
 11
346.0
 21
-360.0
 31
0.0
  0
LINE
  8
GRID
  6
CONTINUOUS
 62
     9
  5
36
 10
-470.0
 20
-192.0
 30
0.0
 11
466.0
 21
-192.0
 31
0.0
  0
LINE
  8
GRID
  6
CONTINUOUS
 62
     9
  5
37
 10
-470.0
 20
-72.0
 30
0.0
 11
466.0
 21
-72.0
 31
0.0
  0
LINE
  8
GRID
  6
CONTINUOUS
 62
     9
  5
38
 10
-470.0
 20
48.0
 30
0.0
 11
466.0
 21
48.0
 31
0.0
  0
LINE
  8
GRID
  6
CONTINUOUS
 62
     9
  5
39
 10
-470.0
 20
168.0
 30
0.0
 11
466.0
 21
168.0
 31
0.0
  0
LINE
  8
GRID
  6
CONTINUOUS
 62
     9
  5
3A
 10
-470.0
 20
288.0
 30
0.0
 11
466.0
 21
288.0
 31
0.0
  0
LINE
  8
GRID
  6
CONTINUOUS
 62
     9
  5
3B
 10
226.0
 20
360.0
 30
0.0
 11
226.0
 21
-360.0
 31
0.0
  0
LINE
  8
GRID
  6
CONTINUOUS
 62
     9
  5
3C
 10
106.0
 20
360.0
 30
0.0
 11
106.0
 21
-360.0
 31
0.0
  0
LINE
  8
GRID
  6
CONTINUOUS
 62
     9
  5
3D
 10
-14.0
 20
360.0
 30
0.0
 11
-14.0
 21
-360.0
 31
0.0
  0
LINE
  8
GRID
  6
CONTINUOUS
 62
     9
  5
3E
 10
-134.0
 20
360.0
 30
0.0
 11
-134.0
 21
-360.0
 31
0.0
  0
LINE
  8
GRID
  6
CONTINUOUS
 62
     9
  5
3F
 10
-254.0
 20
360.0
 30
0.0
 11
-254.0
 21
-360.0
 31
0.0
  0
LINE
  8
GRID
  6
CONTINUOUS
 62
     9
  5
40
 10
-374.0
 20
360.0
 30
0.0
 11
-374.0
 21
-360.0
 31
0.0
  0
LINE
  8
GRID
  6
CONTINUOUS
 62
     9
  5
41
 10
-470.0
 20
-312.0
 30
0.0
 11
466.0
 21
-312.0
 31
0.0
  0
POLYLINE
  8
GRID
  6
CONTINUOUS
 62
     5
  5
42
 66
     1
 10
0.0
 20
0.0
 30
0.0
 70
     5
 40
1.344
 41
1.344
 75
     5
  0
VERTEX
  8
GRID
  6
CONTINUOUS
 62
     5
  5
43
 10
-470.0
 20
360.0
 30
0.0
  0
VERTEX
  8
GRID
  6
CONTINUOUS
 62
     5
  5
44
 10
466.0
 20
360.0
 30
0.0
  0
VERTEX
  8
GRID
  6
CONTINUOUS
 62
     5
  5
45
 10
466.0
 20
-360.0
 30
0.0
  0
VERTEX
  8
GRID
  6
CONTINUOUS
 62
     5
  5
46
 10
-470.0
 20
-360.0
 30
0.0
  0
SEQEND
  8
GRID
  6
CONTINUOUS
  5
47
  0
POLYLINE
  8
TRAILER
  6
CONTINUOUS
 62
     7
  5
48
 66
     1
 10
0.0
 20
0.0
 30
0.0
 70
     5
 75
     5
  0
VERTEX
  8
TRAILER
  6
CONTINUOUS
 62
     7
  5
49
 10
-164.0
 20
93.0
 30
0.0
  0
VERTEX
  8
TRAILER
  6
CONTINUOUS
 62
     7
  5
4A
 10
136.0
 20
93.0
 30
0.0
  0
VERTEX
  8
TRAILER
  6
CONTINUOUS
 62
     7
  5
4B
 10
136.0
 20
3.0
 30
0.0
  0
VERTEX
  8
TRAILER
  6
CONTINUOUS
 62
     7
  5
4C
 10
-164.0
 20
3.0
 30
0.0
  0
SEQEND
  8
TRAILER
  6
CONTINUOUS
  5
4D
  0
POLYLINE
  8
TRAILER
  6
CONTINUOUS
 62
     7
  5
4E
 66
     1
 10
0.0
 20
0.0
 30
0.0
 70
     5
 75
     5
  0
VERTEX
  8
TRAILER
  6
CONTINUOUS
 62
     7
  5
4F
 10
-199.75
 20
53.2977
 30
0.0
  0
VERTEX
  8
TRAILER
  6
CONTINUOUS
 62
     7
  5
50
 10
-199.75
 20
55.5484
 30
0.0
  0
VERTEX
  8
TRAILER
  6
CONTINUOUS
 62
     7
  5
51
 10
-164.0
 20
74.0
 30
0.0
  0
VERTEX
  8
TRAILER
  6
CONTINUOUS
 62
     7
  5
52
 10
-164.0
 20
71.7493
 30
0.0
  0
SEQEND
  8
TRAILER
  6
CONTINUOUS
  5
53
  0
POLYLINE
  8
TRAILER
  6
CONTINUOUS
 62
     7
  5
54
 66
     1
 10
0.0
 20
0.0
 30
0.0
 70
     5
 75
     5
  0
VERTEX
  8
TRAILER
  6
CONTINUOUS
 62
     7
  5
55
 10
-199.75
 20
42.7023
 30
0.0
  0
VERTEX
  8
TRAILER
  6
CONTINUOUS
 62
     7
  5
56
 10
-199.75
 20
40.4516
 30
0.0
  0
VERTEX
  8
TRAILER
  6
CONTINUOUS
 62
     7
  5
57
 10
-164.0
 20
22.0
 30
0.0
  0
VERTEX
  8
TRAILER
  6
CONTINUOUS
 62
     7
  5
58
 10
-164.0
 20
24.2507
 30
0.0
  0
SEQEND
  8
TRAILER
  6
CONTINUOUS
  5
59
  0
POLYLINE
  8
TRAILER
  6
CONTINUOUS
 62
     7
  5
5A
 66
     1
 10
0.0
 20
0.0
 30
0.0
 70
     5
 75
     5
  0
VERTEX
  8
TRAILER
  6
CONTINUOUS
 62
     7
  5
5B
 10
-199.75
 20
49.0
 30
0.0
  0
VERTEX
  8
TRAILER
  6
CONTINUOUS
 62
     7
  5
5C
 10
-164.0
 20
49.0
 30
0.0
  0
VERTEX
  8
TRAILER
  6
CONTINUOUS
 62
     7
  5
5D
 10
-164.0
 20
47.0
 30
0.0
  0
VERTEX
  8
TRAILER
  6
CONTINUOUS
 62
     7
  5
5E
 10
-199.75
 20
47.0
 30
0.0
  0
SEQEND
  8
TRAILER
  6
CONTINUOUS
  5
5F
  0
POLYLINE
  8
TRAILER
  6
CONTINUOUS
 62
     7
  5
60
 66
     1
 10
0.0
 20
0.0
 30
0.0
 70
     5
 75
     5
  0
VERTEX
  8
TRAILER
  6
CONTINUOUS
 62
     7
  5
61
 10
-213.2551
 20
49.0
 30
0.0
  0
VERTEX
  8
TRAILER
  6
CONTINUOUS
 62
     7
  5
62
 10
-199.75
 20
55.9704
 30
0.0
  0
VERTEX
  8
TRAILER
  6
CONTINUOUS
 62
     7
  5
63
 10
-199.75
 20
40.0296
 30
0.0
  0
VERTEX
  8
TRAILER
  6
CONTINUOUS
 62
     7
  5
64
 10
-213.2551
 20
47.0
 30
0.0
  0
SEQEND
  8
TRAILER
  6
CONTINUOUS
  5
65
  0
CIRCLE
  8
TRAILER
  6
CONTINUOUS
 62
     7
  5
66
 10
-213.1883
 20
48.0
 30
0.0
 40
1.8117
  0
POLYLINE
  8
TRAILER
  6
CONTINUOUS
 62
     7
  5
67
 66
     1
 10
0.0
 20
0.0
 30
0.0
 70
     5
 75
     5
  0
VERTEX
  8
TRAILER
  6
CONTINUOUS
 62
     7
  5
68
 10
-164.0
 20
73.5
 30
0.0
  0
VERTEX
  8
TRAILER
  6
CONTINUOUS
 62
     7
  5
69
 10
136.0
 20
73.5
 30
0.0
  0
VERTEX
  8
TRAILER
  6
CONTINUOUS
 62
     7
  5
6A
 10
136.0
 20
65.5
 30
0.0
  0
VERTEX
  8
TRAILER
  6
CONTINUOUS
 62
     7
  5
6B
 10
-164.0
 20
65.5
 30
0.0
  0
SEQEND
  8
TRAILER
  6
CONTINUOUS
  5
6C
  0
POLYLINE
  8
TRAILER
  6
CONTINUOUS
 62
     7
  5
6D
 66
     1
 10
0.0
 20
0.0
 30
0.0
 70
     5
 75
     5
  0
VERTEX
  8
TRAILER
  6
CONTINUOUS
 62
     7
  5
6E
 10
-164.0
 20
70.25
 30
0.0
  0
VERTEX
  8
TRAILER
  6
CONTINUOUS
 62
     7
  5
6F
 10
136.0
 20
70.25
 30
0.0
  0
VERTEX
  8
TRAILER
  6
CONTINUOUS
 62
     7
  5
70
 10
136.0
 20
68.75
 30
0.0
  0
VERTEX
  8
TRAILER
  6
CONTINUOUS
 62
     7
  5
71
 10
-164.0
 20
68.75
 30
0.0
  0
SEQEND
  8
TRAILER
  6
CONTINUOUS
  5
72
  0
POLYLINE
  8
TRAILER
  6
CONTINUOUS
 62
     7
  5
73
 66
     1
 10
0.0
 20
0.0
 30
0.0
 70
     5
 75
     5
  0
VERTEX
  8
TRAILER
  6
CONTINUOUS
 62
     7
  5
74
 10
-164.0
 20
30.5
 30
0.0
  0
VERTEX
  8
TRAILER
  6
CONTINUOUS
 62
     7
  5
75
 10
136.0
 20
30.5
 30
0.0
  0
VERTEX
  8
TRAILER
  6
CONTINUOUS
 62
     7
  5
76
 10
136.0
 20
22.5
 30
0.0
  0
VERTEX
  8
TRAILER
  6
CONTINUOUS
 62
     7
  5
77
 10
-164.0
 20
22.5
 30
0.0
  0
SEQEND
  8
TRAILER
  6
CONTINUOUS
  5
78
  0
POLYLINE
  8
TRAILER
  6
CONTINUOUS
 62
     7
  5
79
 66
     1
 10
0.0
 20
0.0
 30
0.0
 70
     5
 75
     5
  0
VERTEX
  8
TRAILER
  6
CONTINUOUS
 62
     7
  5
7A
 10
-164.0
 20
27.25
 30
0.0
  0
VERTEX
  8
TRAILER
  6
CONTINUOUS
 62
     7
  5
7B
 10
136.0
 20
27.25
 30
0.0
  0
VERTEX
  8
TRAILER
  6
CONTINUOUS
 62
     7
  5
7C
 10
136.0
 20
25.75
 30
0.0
  0
VERTEX
  8
TRAILER
  6
CONTINUOUS
 62
     7
  5
7D
 10
-164.0
 20
25.75
 30
0.0
  0
SEQEND
  8
TRAILER
  6
CONTINUOUS
  5
7E
  0
POLYLINE
  8
TRAILER
  6
CONTINUOUS
 62
     7
  5
7F
 66
     1
 10
0.0
 20
0.0
 30
0.0
 70
     5
 75
     5
  0
VERTEX
  8
TRAILER
  6
CONTINUOUS
 62
     7
  5
80
 10
-23.75
 20
18.125
 30
0.0
  0
VERTEX
  8
TRAILER
  6
CONTINUOUS
 62
     7
  5
81
 10
48.0
 20
18.125
 30
0.0
  0
VERTEX
  8
TRAILER
  6
CONTINUOUS
 62
     7
  5
82
 10
48.0
 20
2.5
 30
0.0
  0
VERTEX
  8
TRAILER
  6
CONTINUOUS
 62
     7
  5
83
 10
-23.75
 20
2.5
 30
0.0
  0
SEQEND
  8
TRAILER
  6
CONTINUOUS
  5
84
  0
POLYLINE
  8
TRAILER
  6
CONTINUOUS
 62
     7
  5
85
 66
     1
 10
0.0
 20
0.0
 30
0.0
 70
     5
 75
     5
  0
VERTEX
  8
TRAILER
  6
CONTINUOUS
 62
     7
  5
86
 10
-23.75
 20
93.5
 30
0.0
  0
VERTEX
  8
TRAILER
  6
CONTINUOUS
 62
     7
  5
87
 10
48.0
 20
93.5
 30
0.0
  0
VERTEX
  8
TRAILER
  6
CONTINUOUS
 62
     7
  5
88
 10
48.0
 20
77.875
 30
0.0
  0
VERTEX
  8
TRAILER
  6
CONTINUOUS
 62
     7
  5
89
 10
-23.75
 20
77.875
 30
0.0
  0
SEQEND
  8
TRAILER
  6
CONTINUOUS
  5
8A
  0
POLYLINE
  8
DOLLY
  6
CONTINUOUS
 62
     7
  5
8B
 66
     1
 10
0.0
 20
0.0
 30
0.0
 70
     1
  0
VERTEX
  8
DOLLY
  6
CONTINUOUS
 62
     7
  5
8C
 10
-160.75
 20
72.0
 30
0.0
  0
VERTEX
  8
DOLLY
  6
CONTINUOUS
 62
     7
  5
8D
 10
-160.75
 20
24.0
 30
0.0
  0
VERTEX
  8
DOLLY
  6
CONTINUOUS
 62
     7
  5
8E
 10
-100.75
 20
24.0
 30
0.0
  0
VERTEX
  8
DOLLY
  6
CONTINUOUS
 62
     7
  5
8F
 10
-100.75
 20
72.0
 30
0.0
  0
SEQEND
  8
DOLLY
  6
CONTINUOUS
  5
90
  0
POLYLINE
  8
DOLLY
  6
CONTINUOUS
 62
     7
  5
91
 66
     1
 10
0.0
 20
0.0
 30
0.0
 70
     1
  0
VERTEX
  8
DOLLY
  6
CONTINUOUS
 62
     7
  5
92
 10
-115.75
 20
69.0
 30
0.0
  0
VERTEX
  8
DOLLY
  6
CONTINUOUS
 62
     7
  5
93
 10
-103.75
 20
69.0
 30
0.0
  0
VERTEX
  8
DOLLY
  6
CONTINUOUS
 62
     7
  5
94
 10
-103.75
 20
27.0
 30
0.0
  0
VERTEX
  8
DOLLY
  6
CONTINUOUS
 62
     7
  5
95
 10
-115.75
 20
27.0
 30
0.0
  0
SEQEND
  8
DOLLY
  6
CONTINUOUS
  5
96
  0
POLYLINE
  8
DOLLY
  6
CONTINUOUS
 62
     7
  5
97
 66
     1
 10
0.0
 20
0.0
 30
0.0
 70
     1
  0
VERTEX
  8
DOLLY
  6
CONTINUOUS
 62
     7
  5
98
 10
-118.75
 20
69.0
 30
0.0
  0
VERTEX
  8
DOLLY
  6
CONTINUOUS
 62
     7
  5
99
 10
-118.75
 20
27.0
 30
0.0
  0
VERTEX
  8
DOLLY
  6
CONTINUOUS
 62
     7
  5
9A
 10
-129.25
 20
27.0
 30
0.0
  0
VERTEX
  8
DOLLY
  6
CONTINUOUS
 62
     7
  5
9B
 10
-129.25
 20
69.0
 30
0.0
  0
SEQEND
  8
DOLLY
  6
CONTINUOUS
  5
9C
  0
POLYLINE
  8
DOLLY
  6
CONTINUOUS
 62
     7
  5
9D
 66
     1
 10
0.0
 20
0.0
 30
0.0
 70
     1
  0
VERTEX
  8
DOLLY
  6
CONTINUOUS
 62
     7
  5
9E
 10
-142.75
 20
69.0
 30
0.0
  0
VERTEX
  8
DOLLY
  6
CONTINUOUS
 62
     7
  5
9F
 10
-132.25
 20
69.0
 30
0.0
  0
VERTEX
  8
DOLLY
  6
CONTINUOUS
 62
     7
  5
A0
 10
-132.25
 20
27.0
 30
0.0
  0
VERTEX
  8
DOLLY
  6
CONTINUOUS
 62
     7
  5
A1
 10
-142.75
 20
27.0
 30
0.0
  0
SEQEND
  8
DOLLY
  6
CONTINUOUS
  5
A2
  0
POLYLINE
  8
DOLLY
  6
CONTINUOUS
 62
     7
  5
A3
 66
     1
 10
0.0
 20
0.0
 30
0.0
 70
     1
  0
VERTEX
  8
DOLLY
  6
CONTINUOUS
 62
     7
  5
A4
 10
-157.75
 20
27.0
 30
0.0
  0
VERTEX
  8
DOLLY
  6
CONTINUOUS
 62
     7
  5
A5
 10
-157.75
 20
69.0
 30
0.0
  0
VERTEX
  8
DOLLY
  6
CONTINUOUS
 62
     7
  5
A6
 10
-145.75
 20
69.0
 30
0.0
  0
VERTEX
  8
DOLLY
  6
CONTINUOUS
 62
     7
  5
A7
 10
-145.75
 20
27.0
 30
0.0
  0
SEQEND
  8
DOLLY
  6
CONTINUOUS
  5
A8
  0
CIRCLE
  8
DOLLY
  6
CONTINUOUS
 62
     7
  5
A9
 10
-130.75
 20
48.0
 30
0.0
 40
24.0
  0
POLYLINE
  8
ARM-PLAN
  6
CONTINUOUS
 62
     7
  5
AA
 66
     1
 10
0.0
 20
0.0
 30
0.0
 70
     1
  0
VERTEX
  8
ARM-PLAN
  6
CONTINUOUS
 62
     7
  5
AB
 10
-154.4381
 20
43.4038
 30
0.0
  0
VERTEX
  8
ARM-PLAN
  6
CONTINUOUS
 62
     7
  5
AC
 10
-150.9026
 20
46.9393
 30
0.0
  0
VERTEX
  8
ARM-PLAN
  6
CONTINUOUS
 62
     7
  5
AD
 10
-129.6893
 20
68.1525
 30
0.0
  0
VERTEX
  8
ARM-PLAN
  6
CONTINUOUS
 62
     7
  5
AE
 10
-126.1538
 20
71.6881
 30
0.0
  0
VERTEX
  8
ARM-PLAN
  6
CONTINUOUS
 62
     7
  5
AF
 10
-124.0325
 20
69.5667
 30
0.0
  0
VERTEX
  8
ARM-PLAN
  6
CONTINUOUS
 62
     7
  5
B0
 10
-109.1833
 20
54.7175
 30
0.0
  0
VERTEX
  8
ARM-PLAN
  6
CONTINUOUS
 62
     7
  5
B1
 10
-107.0619
 20
52.5962
 30
0.0
  0
VERTEX
  8
ARM-PLAN
  6
CONTINUOUS
 62
     7
  5
B2
 10
-110.5975
 20
49.0607
 30
0.0
  0
VERTEX
  8
ARM-PLAN
  6
CONTINUOUS
 62
     7
  5
B3
 10
-131.8107
 20
27.8474
 30
0.0
  0
VERTEX
  8
ARM-PLAN
  6
CONTINUOUS
 62
     7
  5
B4
 10
-135.3462
 20
24.3119
 30
0.0
  0
VERTEX
  8
ARM-PLAN
  6
CONTINUOUS
 62
     7
  5
B5
 10
-137.4675
 20
26.4332
 30
0.0
  0
VERTEX
  8
ARM-PLAN
  6
CONTINUOUS
 62
     7
  5
B6
 10
-152.3168
 20
41.2825
 30
0.0
  0
SEQEND
  8
ARM-PLAN
  6
CONTINUOUS
  5
B7
  0
POLYLINE
  8
ARM-PLAN
  6
CONTINUOUS
 62
     7
  5
B8
 66
     1
 10
0.0
 20
0.0
 30
0.0
 70
     1
  0
VERTEX
  8
ARM-PLAN
  6
CONTINUOUS
 62
     7
  5
B9
 10
-148.7812
 20
44.818
 30
0.0
  0
VERTEX
  8
ARM-PLAN
  6
CONTINUOUS
 62
     7
  5
BA
 10
-133.932
 20
29.9688
 30
0.0
  0
VERTEX
  8
ARM-PLAN
  6
CONTINUOUS
 62
     7
  5
BB
 10
-112.7188
 20
51.182
 30
0.0
  0
VERTEX
  8
ARM-PLAN
  6
CONTINUOUS
 62
     7
  5
BC
 10
-127.568
 20
66.0312
 30
0.0
  0
SEQEND
  8
ARM-PLAN
  6
CONTINUOUS
  5
BD
  0
POLYLINE
  8
ARM-PLAN
  6
CONTINUOUS
 62
     7
  5
BE
 66
     1
 10
0.0
 20
0.0
 30
0.0
 70
     5
 75
     5
  0
VERTEX
  8
ARM-PLAN
  6
CONTINUOUS
 62
     7
  5
BF
 10
-118.7292
 20
64.2634
 30
0.0
  0
VERTEX
  8
ARM-PLAN
  6
CONTINUOUS
 62
     7
  5
C0
 10
-114.4866
 20
60.0208
 30
0.0
  0
VERTEX
  8
ARM-PLAN
  6
CONTINUOUS
 62
     7
  5
C1
 10
-118.0221
 20
56.4853
 30
0.0
  0
VERTEX
  8
ARM-PLAN
  6
CONTINUOUS
 62
     7
  5
C2
 10
-122.2647
 20
60.7279
 30
0.0
  0
SEQEND
  8
ARM-PLAN
  6
CONTINUOUS
  5
C3
  0
POLYLINE
  8
ARM-PLAN
  6
CONTINUOUS
 62
     7
  5
C4
 66
     1
 10
0.0
 20
0.0
 30
0.0
 70
     5
 75
     5
  0
VERTEX
  8
ARM-PLAN
  6
CONTINUOUS
 62
     7
  5
C5
 10
-143.4779
 20
39.5147
 30
0.0
  0
VERTEX
  8
ARM-PLAN
  6
CONTINUOUS
 62
     7
  5
C6
 10
-139.2353
 20
35.2721
 30
0.0
  0
VERTEX
  8
ARM-PLAN
  6
CONTINUOUS
 62
     7
  5
C7
 10
-142.7708
 20
31.7365
 30
0.0
  0
VERTEX
  8
ARM-PLAN
  6
CONTINUOUS
 62
     7
  5
C8
 10
-147.0135
 20
35.9792
 30
0.0
  0
SEQEND
  8
ARM-PLAN
  6
CONTINUOUS
  5
C9
  0
POLYLINE
  8
ARM-PLAN
  6
CONTINUOUS
 62
     7
  5
CA
 66
     1
 10
0.0
 20
0.0
 30
0.0
 70
     1
  0
VERTEX
  8
ARM-PLAN
  6
CONTINUOUS
 62
     7
  5
CB
 10
-124.0322
 20
24.3118
 30
0.0
  0
VERTEX
  8
ARM-PLAN
  6
CONTINUOUS
 62
     7
  5
CC
 10
-138.1745
 20
38.4541
 30
0.0
  0
VERTEX
  8
ARM-PLAN
  6
CONTINUOUS
 62
     7
  5
CD
 10
-140.2959
 20
40.5755
 30
0.0
  0
VERTEX
  8
ARM-PLAN
  6
CONTINUOUS
 62
     7
  5
CE
 10
-154.438
 20
54.7176
 30
0.0
  0
VERTEX
  8
ARM-PLAN
  6
CONTINUOUS
 62
     7
  5
CF
 10
-156.2057
 20
56.4853
 30
0.0
  0
VERTEX
  8
ARM-PLAN
  6
CONTINUOUS
 62
     7
  5
D0
 10
-156.2058
 20
56.4854
 30
0.0
  0
VERTEX
  8
ARM-PLAN
  6
CONTINUOUS
 62
     7
  5
D1
 10
-141.003
 20
71.6882
 30
0.0
  0
VERTEX
  8
ARM-PLAN
  6
CONTINUOUS
 62
     7
  5
D2
 10
-139.2354
 20
73.4558
 30
0.0
  0
VERTEX
  8
ARM-PLAN
  6
CONTINUOUS
 62
     7
  5
D3
 10
-137.4676
 20
71.6879
 30
0.0
  0
VERTEX
  8
ARM-PLAN
  6
CONTINUOUS
 62
     7
  5
D4
 10
-123.3255
 20
57.5459
 30
0.0
  0
VERTEX
  8
ARM-PLAN
  6
CONTINUOUS
 62
     7
  5
D5
 10
-121.2041
 20
55.4245
 30
0.0
  0
VERTEX
  8
ARM-PLAN
  6
CONTINUOUS
 62
     7
  5
D6
 10
-107.0619
 20
41.2822
 30
0.0
  0
VERTEX
  8
ARM-PLAN
  6
CONTINUOUS
 62
     7
  5
D7
 10
-105.2943
 20
39.5146
 30
0.0
  0
VERTEX
  8
ARM-PLAN
  6
CONTINUOUS
 62
     7
  5
D8
 10
-105.294
 20
39.5144
 30
0.0
  0
VERTEX
  8
ARM-PLAN
  6
CONTINUOUS
 62
     7
  5
D9
 10
-122.2644
 20
22.544
 30
0.0
  0
VERTEX
  8
ARM-PLAN
  6
CONTINUOUS
 62
     7
  5
DA
 10
-122.2645
 20
22.5441
 30
0.0
  0
SEQEND
  8
ARM-PLAN
  6
CONTINUOUS
  5
DB
  0
POLYLINE
  8
ARM-PLAN
  6
CONTINUOUS
 62
     7
  5
DC
 66
     1
 10
0.0
 20
0.0
 30
0.0
 70
     1
  0
VERTEX
  8
ARM-PLAN
  6
CONTINUOUS
 62
     7
  5
DD
 10
-138.5283
 20
42.3431
 30
0.0
  0
VERTEX
  8
ARM-PLAN
  6
CONTINUOUS
 62
     7
  5
DE
 10
-125.0931
 20
55.7783
 30
0.0
  0
VERTEX
  8
ARM-PLAN
  6
CONTINUOUS
 62
     7
  5
DF
 10
-139.2351
 20
69.9204
 30
0.0
  0
VERTEX
  8
ARM-PLAN
  6
CONTINUOUS
 62
     7
  5
E0
 10
-138.8803
 20
42.695
 30
0.0
  0
SEQEND
  8
ARM-PLAN
  6
CONTINUOUS
  5
E1
  0
POLYLINE
  8
ARM-PLAN
  6
CONTINUOUS
 62
     7
  5
E2
 66
     1
 10
0.0
 20
0.0
 30
0.0
 70
     1
  0
VERTEX
  8
ARM-PLAN
  6
CONTINUOUS
 62
     7
  5
E3
 10
-140.9069
 20
44.7216
 30
0.0
  0
VERTEX
  8
ARM-PLAN
  6
CONTINUOUS
 62
     7
  5
E4
 10
-141.2096
 20
67.9459
 30
0.0
  0
VERTEX
  8
ARM-PLAN
  6
CONTINUOUS
 62
     7
  5
E5
 10
-152.6704
 20
56.4851
 30
0.0
  0
SEQEND
  8
ARM-PLAN
  6
CONTINUOUS
  5
E6
  0
POLYLINE
  8
ARM-PLAN
  6
CONTINUOUS
 62
     7
  5
E7
 66
     1
 10
0.0
 20
0.0
 30
0.0
 70
     1
  0
VERTEX
  8
ARM-PLAN
  6
CONTINUOUS
 62
     7
  5
E8
 10
-136.4069
 20
40.2217
 30
0.0
  0
VERTEX
  8
ARM-PLAN
  6
CONTINUOUS
 62
     7
  5
E9
 10
-136.055
 20
39.8697
 30
0.0
  0
VERTEX
  8
ARM-PLAN
  6
CONTINUOUS
 62
     7
  5
EA
 10
-108.8296
 20
39.5149
 30
0.0
  0
VERTEX
  8
ARM-PLAN
  6
CONTINUOUS
 62
     7
  5
EB
 10
-122.9717
 20
53.6569
 30
0.0
  0
SEQEND
  8
ARM-PLAN
  6
CONTINUOUS
  5
EC
  0
POLYLINE
  8
ARM-PLAN
  6
CONTINUOUS
 62
     7
  5
ED
 66
     1
 10
0.0
 20
0.0
 30
0.0
 70
     1
  0
VERTEX
  8
ARM-PLAN
  6
CONTINUOUS
 62
     7
  5
EE
 10
-108.8294
 20
39.5147
 30
0.0
  0
VERTEX
  8
ARM-PLAN
  6
CONTINUOUS
 62
     7
  5
EF
 10
-108.8296
 20
39.5149
 30
0.0
  0
VERTEX
  8
ARM-PLAN
  6
CONTINUOUS
 62
     7
  5
F0
 10
-110.8041
 20
37.5404
 30
0.0
  0
VERTEX
  8
ARM-PLAN
  6
CONTINUOUS
 62
     7
  5
F1
 10
-134.0284
 20
37.8431
 30
0.0
  0
VERTEX
  8
ARM-PLAN
  6
CONTINUOUS
 62
     7
  5
F2
 10
-122.2647
 20
26.0794
 30
0.0
  0
SEQEND
  8
ARM-PLAN
  6
CONTINUOUS
  5
F3
  0
POLYLINE
  8
ARM-PLAN
  6
CONTINUOUS
 62
     7
  5
F4
 66
     1
 10
0.0
 20
0.0
 30
0.0
 70
     1
  0
VERTEX
  8
ARM-PLAN
  6
CONTINUOUS
 62
     7
  5
F5
 10
-228.3982
 20
132.4318
 30
0.0
  0
VERTEX
  8
ARM-PLAN
  6
CONTINUOUS
 62
     7
  5
F6
 10
-229.432
 20
133.5194
 30
0.0
  0
VERTEX
  8
ARM-PLAN
  6
CONTINUOUS
 62
     7
  5
F7
 10
-251.7977
 20
157.0483
 30
0.0
  0
VERTEX
  8
ARM-PLAN
  6
CONTINUOUS
 62
     7
  5
F8
 10
-252.8584
 20
158.1089
 30
0.0
  0
VERTEX
  8
ARM-PLAN
  6
CONTINUOUS
 62
     7
  5
F9
 10
-252.8315
 20
158.1358
 30
0.0
  0
VERTEX
  8
ARM-PLAN
  6
CONTINUOUS
 62
     7
  5
FA
 10
-272.8508
 20
179.1962
 30
0.0
  0
VERTEX
  8
ARM-PLAN
  6
CONTINUOUS
 62
     7
  5
FB
 10
-273.8846
 20
180.2837
 30
0.0
  0
VERTEX
  8
ARM-PLAN
  6
CONTINUOUS
 62
     7
  5
FC
 10
-291.6065
 20
198.9273
 30
0.0
  0
VERTEX
  8
ARM-PLAN
  6
CONTINUOUS
 62
     7
  5
FD
 10
-292.6403
 20
200.0149
 30
0.0
  0
VERTEX
  8
ARM-PLAN
  6
CONTINUOUS
 62
     7
  5
FE
 10
-309.5499
 20
217.8038
 30
0.0
  0
VERTEX
  8
ARM-PLAN
  6
CONTINUOUS
 62
     7
  5
FF
 10
-310.5837
 20
218.8914
 30
0.0
  0
VERTEX
  8
ARM-PLAN
  6
CONTINUOUS
 62
     7
  5
100
 10
-319.3707
 20
228.1354
 30
0.0
  0
VERTEX
  8
ARM-PLAN
  6
CONTINUOUS
 62
     7
  5
101
 10
-310.8854
 20
236.6207
 30
0.0
  0
VERTEX
  8
ARM-PLAN
  6
CONTINUOUS
 62
     7
  5
102
 10
-301.6414
 20
227.8336
 30
0.0
  0
VERTEX
  8
ARM-PLAN
  6
CONTINUOUS
 62
     7
  5
103
 10
-300.5539
 20
226.7998
 30
0.0
  0
VERTEX
  8
ARM-PLAN
  6
CONTINUOUS
 62
     7
  5
104
 10
-282.7649
 20
209.8902
 30
0.0
  0
VERTEX
  8
ARM-PLAN
  6
CONTINUOUS
 62
     7
  5
105
 10
-281.6774
 20
208.8565
 30
0.0
  0
VERTEX
  8
ARM-PLAN
  6
CONTINUOUS
 62
     7
  5
106
 10
-263.0339
 20
191.1345
 30
0.0
  0
VERTEX
  8
ARM-PLAN
  6
CONTINUOUS
 62
     7
  5
107
 10
-261.9463
 20
190.1008
 30
0.0
  0
VERTEX
  8
ARM-PLAN
  6
CONTINUOUS
 62
     7
  5
108
 10
-240.8859
 20
170.0814
 30
0.0
  0
VERTEX
  8
ARM-PLAN
  6
CONTINUOUS
 62
     7
  5
109
 10
-239.7984
 20
169.0476
 30
0.0
  0
VERTEX
  8
ARM-PLAN
  6
CONTINUOUS
 62
     7
  5
10A
 10
-216.2695
 20
146.6819
 30
0.0
  0
VERTEX
  8
ARM-PLAN
  6
CONTINUOUS
 62
     7
  5
10B
 10
-215.182
 20
145.6481
 30
0.0
  0
VERTEX
  8
ARM-PLAN
  6
CONTINUOUS
 62
     7
  5
10C
 10
-188.5779
 20
120.3591
 30
0.0
  0
VERTEX
  8
ARM-PLAN
  6
CONTINUOUS
 62
     7
  5
10D
 10
-187.4903
 20
119.3253
 30
0.0
  0
VERTEX
  8
ARM-PLAN
  6
CONTINUOUS
 62
     7
  5
10E
 10
-158.0862
 20
91.3747
 30
0.0
  0
VERTEX
  8
ARM-PLAN
  6
CONTINUOUS
 62
     7
  5
10F
 10
-156.9987
 20
90.3409
 30
0.0
  0
VERTEX
  8
ARM-PLAN
  6
CONTINUOUS
 62
     7
  5
110
 10
-139.2354
 20
73.4558
 30
0.0
  0
VERTEX
  8
ARM-PLAN
  6
CONTINUOUS
 62
     7
  5
111
 10
-156.2059
 20
56.4851
 30
0.0
  0
VERTEX
  8
ARM-PLAN
  6
CONTINUOUS
 62
     7
  5
112
 10
-173.0912
 20
74.2486
 30
0.0
  0
VERTEX
  8
ARM-PLAN
  6
CONTINUOUS
 62
     7
  5
113
 10
-174.1517
 20
75.3091
 30
0.0
  0
VERTEX
  8
ARM-PLAN
  6
CONTINUOUS
 62
     7
  5
114
 10
-174.1249
 20
75.3359
 30
0.0
  0
VERTEX
  8
ARM-PLAN
  6
CONTINUOUS
 62
     7
  5
115
 10
-202.0754
 20
104.74
 30
0.0
  0
VERTEX
  8
ARM-PLAN
  6
CONTINUOUS
 62
     7
  5
116
 10
-203.1091
 20
105.8276
 30
0.0
  0
SEQEND
  8
ARM-PLAN
  6
CONTINUOUS
  5
117
  0
POLYLINE
  8
ARM-PLAN
  6
CONTINUOUS
 62
     7
  5
118
 66
     1
 10
0.0
 20
0.0
 30
0.0
 70
     1
  0
VERTEX
  8
ARM-PLAN
  6
CONTINUOUS
 62
     7
  5
119
 10
-172.0301
 20
75.3094
 30
0.0
  0
VERTEX
  8
ARM-PLAN
  6
CONTINUOUS
 62
     7
  5
11A
 10
-156.1787
 20
58.6337
 30
0.0
  0
VERTEX
  8
ARM-PLAN
  6
CONTINUOUS
 62
     7
  5
11B
 10
-141.384
 20
73.4285
 30
0.0
  0
VERTEX
  8
ARM-PLAN
  6
CONTINUOUS
 62
     7
  5
11C
 10
-158.0597
 20
89.2799
 30
0.0
  0
SEQEND
  8
ARM-PLAN
  6
CONTINUOUS
  5
11D
  0
POLYLINE
  8
ARM-PLAN
  6
CONTINUOUS
 62
     7
  5
11E
 66
     1
 10
0.0
 20
0.0
 30
0.0
 70
     1
  0
VERTEX
  8
ARM-PLAN
  6
CONTINUOUS
 62
     7
  5
11F
 10
-173.0639
 20
76.397
 30
0.0
  0
VERTEX
  8
ARM-PLAN
  6
CONTINUOUS
 62
     7
  5
120
 10
-159.1472
 20
90.3137
 30
0.0
  0
VERTEX
  8
ARM-PLAN
  6
CONTINUOUS
 62
     7
  5
121
 10
-188.5513
 20
118.2643
 30
0.0
  0
VERTEX
  8
ARM-PLAN
  6
CONTINUOUS
 62
     7
  5
122
 10
-201.0144
 20
105.8011
 30
0.0
  0
SEQEND
  8
ARM-PLAN
  6
CONTINUOUS
  5
123
  0
POLYLINE
  8
ARM-PLAN
  6
CONTINUOUS
 62
     7
  5
124
 66
     1
 10
0.0
 20
0.0
 30
0.0
 70
     1
  0
VERTEX
  8
ARM-PLAN
  6
CONTINUOUS
 62
     7
  5
125
 10
-189.6389
 20
119.2981
 30
0.0
  0
VERTEX
  8
ARM-PLAN
  6
CONTINUOUS
 62
     7
  5
126
 10
-216.243
 20
144.5871
 30
0.0
  0
VERTEX
  8
ARM-PLAN
  6
CONTINUOUS
 62
     7
  5
127
 10
-227.3372
 20
133.4928
 30
0.0
  0
VERTEX
  8
ARM-PLAN
  6
CONTINUOUS
 62
     7
  5
128
 10
-202.0481
 20
106.8886
 30
0.0
  0
SEQEND
  8
ARM-PLAN
  6
CONTINUOUS
  5
129
  0
POLYLINE
  8
ARM-PLAN
  6
CONTINUOUS
 62
     7
  5
12A
 66
     1
 10
0.0
 20
0.0
 30
0.0
 70
     1
  0
VERTEX
  8
ARM-PLAN
  6
CONTINUOUS
 62
     7
  5
12B
 10
-240.8594
 20
167.9866
 30
0.0
  0
VERTEX
  8
ARM-PLAN
  6
CONTINUOUS
 62
     7
  5
12C
 10
-250.7367
 20
158.1093
 30
0.0
  0
VERTEX
  8
ARM-PLAN
  6
CONTINUOUS
 62
     7
  5
12D
 10
-228.371
 20
134.5804
 30
0.0
  0
VERTEX
  8
ARM-PLAN
  6
CONTINUOUS
 62
     7
  5
12E
 10
-217.3305
 20
145.6209
 30
0.0
  0
SEQEND
  8
ARM-PLAN
  6
CONTINUOUS
  5
12F
  0
POLYLINE
  8
ARM-PLAN
  6
CONTINUOUS
 62
     7
  5
130
 66
     1
 10
0.0
 20
0.0
 30
0.0
 70
     1
  0
VERTEX
  8
ARM-PLAN
  6
CONTINUOUS
 62
     7
  5
131
 10
-271.7898
 20
180.2572
 30
0.0
  0
VERTEX
  8
ARM-PLAN
  6
CONTINUOUS
 62
     7
  5
132
 10
-251.7705
 20
159.1968
 30
0.0
  0
VERTEX
  8
ARM-PLAN
  6
CONTINUOUS
 62
     7
  5
133
 10
-241.9469
 20
169.0204
 30
0.0
  0
VERTEX
  8
ARM-PLAN
  6
CONTINUOUS
 62
     7
  5
134
 10
-263.0073
 20
189.0397
 30
0.0
  0
SEQEND
  8
ARM-PLAN
  6
CONTINUOUS
  5
135
  0
POLYLINE
  8
ARM-PLAN
  6
CONTINUOUS
 62
     7
  5
136
 66
     1
 10
0.0
 20
0.0
 30
0.0
 70
     1
  0
VERTEX
  8
ARM-PLAN
  6
CONTINUOUS
 62
     7
  5
137
 10
-272.8236
 20
181.3447
 30
0.0
  0
VERTEX
  8
ARM-PLAN
  6
CONTINUOUS
 62
     7
  5
138
 10
-264.0949
 20
190.0735
 30
0.0
  0
VERTEX
  8
ARM-PLAN
  6
CONTINUOUS
 62
     7
  5
139
 10
-282.7384
 20
207.7954
 30
0.0
  0
VERTEX
  8
ARM-PLAN
  6
CONTINUOUS
 62
     7
  5
13A
 10
-290.5455
 20
199.9883
 30
0.0
  0
SEQEND
  8
ARM-PLAN
  6
CONTINUOUS
  5
13B
  0
POLYLINE
  8
ARM-PLAN
  6
CONTINUOUS
 62
     7
  5
13C
 66
     1
 10
0.0
 20
0.0
 30
0.0
 70
     1
  0
VERTEX
  8
ARM-PLAN
  6
CONTINUOUS
 62
     7
  5
13D
 10
-283.8259
 20
208.8292
 30
0.0
  0
VERTEX
  8
ARM-PLAN
  6
CONTINUOUS
 62
     7
  5
13E
 10
-301.6149
 20
225.7388
 30
0.0
  0
VERTEX
  8
ARM-PLAN
  6
CONTINUOUS
 62
     7
  5
13F
 10
-308.4889
 20
218.8648
 30
0.0
  0
VERTEX
  8
ARM-PLAN
  6
CONTINUOUS
 62
     7
  5
140
 10
-291.5793
 20
201.0759
 30
0.0
  0
SEQEND
  8
ARM-PLAN
  6
CONTINUOUS
  5
141
  0
POLYLINE
  8
ARM-PLAN
  6
CONTINUOUS
 62
     7
  5
142
 66
     1
 10
0.0
 20
0.0
 30
0.0
 70
     1
  0
VERTEX
  8
ARM-PLAN
  6
CONTINUOUS
 62
     7
  5
143
 10
-317.2759
 20
228.1089
 30
0.0
  0
VERTEX
  8
ARM-PLAN
  6
CONTINUOUS
 62
     7
  5
144
 10
-309.5227
 20
219.9524
 30
0.0
  0
VERTEX
  8
ARM-PLAN
  6
CONTINUOUS
 62
     7
  5
145
 10
-302.7024
 20
226.7726
 30
0.0
  0
VERTEX
  8
ARM-PLAN
  6
CONTINUOUS
 62
     7
  5
146
 10
-310.8589
 20
234.5259
 30
0.0
  0
SEQEND
  8
ARM-PLAN
  6
CONTINUOUS
  5
147
  0
POLYLINE
  8
ARM-PLAN
  6
CONTINUOUS
 62
     7
  5
148
 66
     1
 10
0.0
 20
0.0
 30
0.0
 70
     1
  0
VERTEX
  8
ARM-PLAN
  6
CONTINUOUS
 62
     7
  5
149
 10
-81.5018
 20
-13.4231
 30
0.0
  0
VERTEX
  8
ARM-PLAN
  6
CONTINUOUS
 62
     7
  5
14A
 10
-100.2844
 20
3.1498
 30
0.0
  0
VERTEX
  8
ARM-PLAN
  6
CONTINUOUS
 62
     7
  5
14B
 10
-101.4113
 20
4.1442
 30
0.0
  0
VERTEX
  8
ARM-PLAN
  6
CONTINUOUS
 62
     7
  5
14C
 10
-122.2644
 20
22.544
 30
0.0
  0
VERTEX
  8
ARM-PLAN
  6
CONTINUOUS
 62
     7
  5
14D
 10
-105.294
 20
39.5144
 30
0.0
  0
VERTEX
  8
ARM-PLAN
  6
CONTINUOUS
 62
     7
  5
14E
 10
-86.8942
 20
18.6613
 30
0.0
  0
VERTEX
  8
ARM-PLAN
  6
CONTINUOUS
 62
     7
  5
14F
 10
-85.8998
 20
17.5343
 30
0.0
  0
VERTEX
  8
ARM-PLAN
  6
CONTINUOUS
 62
     7
  5
150
 10
-69.3269
 20
-1.2482
 30
0.0
  0
VERTEX
  8
ARM-PLAN
  6
CONTINUOUS
 62
     7
  5
151
 10
-68.3325
 20
-2.3752
 30
0.0
  0
VERTEX
  8
ARM-PLAN
  6
CONTINUOUS
 62
     7
  5
152
 10
-50.938
 20
-22.0889
 30
0.0
  0
VERTEX
  8
ARM-PLAN
  6
CONTINUOUS
 62
     7
  5
153
 10
-49.9437
 20
-23.2159
 30
0.0
  0
VERTEX
  8
ARM-PLAN
  6
CONTINUOUS
 62
     7
  5
154
 10
-41.6543
 20
-32.6104
 30
0.0
  0
VERTEX
  8
ARM-PLAN
  6
CONTINUOUS
 62
     7
  5
155
 10
-50.1396
 20
-41.0957
 30
0.0
  0
VERTEX
  8
ARM-PLAN
  6
CONTINUOUS
 62
     7
  5
156
 10
-59.5342
 20
-32.8064
 30
0.0
  0
VERTEX
  8
ARM-PLAN
  6
CONTINUOUS
 62
     7
  5
157
 10
-60.6611
 20
-31.812
 30
0.0
  0
VERTEX
  8
ARM-PLAN
  6
CONTINUOUS
 62
     7
  5
158
 10
-80.3748
 20
-14.4175
 30
0.0
  0
SEQEND
  8
ARM-PLAN
  6
CONTINUOUS
  5
159
  0
POLYLINE
  8
ARM-PLAN
  6
CONTINUOUS
 62
     7
  5
15A
 66
     1
 10
0.0
 20
0.0
 30
0.0
 70
     1
  0
VERTEX
  8
ARM-PLAN
  6
CONTINUOUS
 62
     7
  5
15B
 10
-87.9569
 20
17.5986
 30
0.0
  0
VERTEX
  8
ARM-PLAN
  6
CONTINUOUS
 62
     7
  5
15C
 10
-105.3624
 20
37.3247
 30
0.0
  0
VERTEX
  8
ARM-PLAN
  6
CONTINUOUS
 62
     7
  5
15D
 10
-120.0747
 20
22.6124
 30
0.0
  0
VERTEX
  8
ARM-PLAN
  6
CONTINUOUS
 62
     7
  5
15E
 10
-100.3486
 20
5.2069
 30
0.0
  0
SEQEND
  8
ARM-PLAN
  6
CONTINUOUS
  5
15F
  0
POLYLINE
  8
ARM-PLAN
  6
CONTINUOUS
 62
     7
  5
160
 66
     1
 10
0.0
 20
0.0
 30
0.0
 70
     1
  0
VERTEX
  8
ARM-PLAN
  6
CONTINUOUS
 62
     7
  5
161
 10
-86.9626
 20
16.4716
 30
0.0
  0
VERTEX
  8
ARM-PLAN
  6
CONTINUOUS
 62
     7
  5
162
 10
-99.2216
 20
4.2125
 30
0.0
  0
VERTEX
  8
ARM-PLAN
  6
CONTINUOUS
 62
     7
  5
163
 10
-80.4391
 20
-12.3604
 30
0.0
  0
VERTEX
  8
ARM-PLAN
  6
CONTINUOUS
 62
     7
  5
164
 10
-70.3896
 20
-2.311
 30
0.0
  0
SEQEND
  8
ARM-PLAN
  6
CONTINUOUS
  5
165
  0
POLYLINE
  8
ARM-PLAN
  6
CONTINUOUS
 62
     7
  5
166
 66
     1
 10
0.0
 20
0.0
 30
0.0
 70
     1
  0
VERTEX
  8
ARM-PLAN
  6
CONTINUOUS
 62
     7
  5
167
 10
-79.3121
 20
-13.3547
 30
0.0
  0
VERTEX
  8
ARM-PLAN
  6
CONTINUOUS
 62
     7
  5
168
 10
-59.5984
 20
-30.7493
 30
0.0
  0
VERTEX
  8
ARM-PLAN
  6
CONTINUOUS
 62
     7
  5
169
 10
-52.0008
 20
-23.1517
 30
0.0
  0
VERTEX
  8
ARM-PLAN
  6
CONTINUOUS
 62
     7
  5
16A
 10
-69.3953
 20
-3.4379
 30
0.0
  0
SEQEND
  8
ARM-PLAN
  6
CONTINUOUS
  5
16B
  0
POLYLINE
  8
ARM-PLAN
  6
CONTINUOUS
 62
     7
  5
16C
 66
     1
 10
0.0
 20
0.0
 30
0.0
 70
     1
  0
VERTEX
  8
ARM-PLAN
  6
CONTINUOUS
 62
     7
  5
16D
 10
-43.7114
 20
-32.5462
 30
0.0
  0
VERTEX
  8
ARM-PLAN
  6
CONTINUOUS
 62
     7
  5
16E
 10
-51.0064
 20
-24.2786
 30
0.0
  0
VERTEX
  8
ARM-PLAN
  6
CONTINUOUS
 62
     7
  5
16F
 10
-58.4714
 20
-31.7436
 30
0.0
  0
VERTEX
  8
ARM-PLAN
  6
CONTINUOUS
 62
     7
  5
170
 10
-50.2038
 20
-39.0386
 30
0.0
  0
SEQEND
  8
ARM-PLAN
  6
CONTINUOUS
  5
171
  0
POLYLINE
  8
ARM-PLAN
  6
CONTINUOUS
 62
     7
  5
172
 66
     1
 10
0.0
 20
0.0
 30
0.0
 70
     5
 75
     5
  0
VERTEX
  8
ARM-PLAN
  6
CONTINUOUS
 62
     7
  5
173
 10
-41.6543
 20
-32.6104
 30
0.0
  0
VERTEX
  8
ARM-PLAN
  6
CONTINUOUS
 62
     7
  5
174
 10
-40.9472
 20
-33.3176
 30
0.0
  0
VERTEX
  8
ARM-PLAN
  6
CONTINUOUS
 62
     7
  5
175
 10
-49.4325
 20
-41.8028
 30
0.0
  0
VERTEX
  8
ARM-PLAN
  6
CONTINUOUS
 62
     7
  5
176
 10
-50.1396
 20
-41.0957
 30
0.0
  0
SEQEND
  8
ARM-PLAN
  6
CONTINUOUS
  5
177
  0
POLYLINE
  8
ARM-PLAN
  6
CONTINUOUS
 62
     7
  5
178
 66
     1
 10
0.0
 20
0.0
 30
0.0
 70
     5
 75
     5
  0
VERTEX
  8
ARM-PLAN
  6
CONTINUOUS
 62
     7
  5
179
 10
-40.9472
 20
-33.3176
 30
0.0
  0
VERTEX
  8
ARM-PLAN
  6
CONTINUOUS
 62
     7
  5
17A
 10
-32.4621
 20
-41.8026
 30
0.0
  0
VERTEX
  8
ARM-PLAN
  6
CONTINUOUS
 62
     7
  5
17B
 10
-40.9474
 20
-50.2879
 30
0.0
  0
VERTEX
  8
ARM-PLAN
  6
CONTINUOUS
 62
     7
  5
17C
 10
-49.4325
 20
-41.8028
 30
0.0
  0
SEQEND
  8
ARM-PLAN
  6
CONTINUOUS
  5
17D
  0
POLYLINE
  8
ARM-PLAN
  6
CONTINUOUS
 62
     7
  5
17E
 66
     1
 10
0.0
 20
0.0
 30
0.0
 70
     5
 75
     5
  0
VERTEX
  8
ARM-PLAN
  6
CONTINUOUS
 62
     7
  5
17F
 10
-32.4621
 20
-41.8026
 30
0.0
  0
VERTEX
  8
ARM-PLAN
  6
CONTINUOUS
 62
     7
  5
180
 10
-23.9769
 20
-50.2878
 30
0.0
  0
VERTEX
  8
ARM-PLAN
  6
CONTINUOUS
 62
     7
  5
181
 10
-32.4622
 20
-58.7731
 30
0.0
  0
VERTEX
  8
ARM-PLAN
  6
CONTINUOUS
 62
     7
  5
182
 10
-40.9474
 20
-50.2879
 30
0.0
  0
SEQEND
  8
ARM-PLAN
  6
CONTINUOUS
  5
183
  0
POLYLINE
  8
ARM-PLAN
  6
CONTINUOUS
 62
     7
  5
184
 66
     1
 10
0.0
 20
0.0
 30
0.0
 70
     5
 75
     5
  0
VERTEX
  8
ARM-PLAN
  6
CONTINUOUS
 62
     7
  5
185
 10
-321.7573
 20
244.6642
 30
0.0
  0
VERTEX
  8
ARM-PLAN
  6
CONTINUOUS
 62
     7
  5
186
 10
-313.9447
 20
236.8516
 30
0.0
  0
VERTEX
  8
ARM-PLAN
  6
CONTINUOUS
 62
     7
  5
187
 10
-319.6016
 20
231.1947
 30
0.0
  0
VERTEX
  8
ARM-PLAN
  6
CONTINUOUS
 62
     7
  5
188
 10
-327.4142
 20
239.0073
 30
0.0
  0
SEQEND
  8
ARM-PLAN
  6
CONTINUOUS
  5
189
  0
POLYLINE
  8
ARM-PLAN
  6
CONTINUOUS
 62
     7
  5
18A
 66
     1
 10
0.0
 20
0.0
 30
0.0
 70
     5
 75
     5
  0
VERTEX
  8
ARM-PLAN
  6
CONTINUOUS
 62
     7
  5
18B
 10
-325.612
 20
244.9833
 30
0.0
  0
VERTEX
  8
ARM-PLAN
  6
CONTINUOUS
 62
     7
  5
18C
 10
-323.5251
 20
242.8964
 30
0.0
  0
VERTEX
  8
ARM-PLAN
  6
CONTINUOUS
 62
     7
  5
18D
 10
-325.6464
 20
240.7751
 30
0.0
  0
VERTEX
  8
ARM-PLAN
  6
CONTINUOUS
 62
     7
  5
18E
 10
-327.7333
 20
242.862
 30
0.0
  0
SEQEND
  8
ARM-PLAN
  6
CONTINUOUS
  5
18F
  0
POLYLINE
  8
ARM-PLAN
  6
CONTINUOUS
 62
     7
  5
190
 66
     1
 10
0.0
 20
0.0
 30
0.0
 70
     5
 75
     5
  0
VERTEX
  8
ARM-PLAN
  6
CONTINUOUS
 62
     7
  5
191
 10
-311.3274
 20
237.0626
 30
0.0
  0
VERTEX
  8
ARM-PLAN
  6
CONTINUOUS
 62
     7
  5
192
 10
-310.8854
 20
236.6207
 30
0.0
  0
VERTEX
  8
ARM-PLAN
  6
CONTINUOUS
 62
     7
  5
193
 10
-319.4185
 20
228.0876
 30
0.0
  0
VERTEX
  8
ARM-PLAN
  6
CONTINUOUS
 62
     7
  5
194
 10
-319.8605
 20
228.5295
 30
0.0
  0
SEQEND
  8
ARM-PLAN
  6
CONTINUOUS
  5
195
  0
POLYLINE
  8
ARM-PLAN
  6
CONTINUOUS
 62
     7
  5
196
 66
     1
 10
0.0
 20
0.0
 30
0.0
 70
     5
 75
     5
  0
VERTEX
  8
ARM-PLAN
  6
CONTINUOUS
 62
     7
  5
197
 10
-321.1652
 20
242.8893
 30
0.0
  0
VERTEX
  8
ARM-PLAN
  6
CONTINUOUS
 62
     7
  5
198
 10
-313.3329
 20
235.0571
 30
0.0
  0
VERTEX
  8
ARM-PLAN
  6
CONTINUOUS
 62
     7
  5
199
 10
-317.8549
 20
230.5351
 30
0.0
  0
VERTEX
  8
ARM-PLAN
  6
CONTINUOUS
 62
     7
  5
19A
 10
-325.6872
 20
238.3674
 30
0.0
  0
SEQEND
  8
ARM-PLAN
  6
CONTINUOUS
  5
19B
  0
CIRCLE
  8
ARM-PLAN
  6
CONTINUOUS
 62
     7
  5
19C
 10
-130.75
 20
48.0
 30
0.0
 40
3.9515
  0
POLYLINE
  8
ARM-PLAN
  6
CONTINUOUS
 62
     7
  5
19D
 66
     1
 10
0.0
 20
0.0
 30
0.0
 70
     5
 75
     5
  0
VERTEX
  8
ARM-PLAN
  6
CONTINUOUS
 62
     7
  5
19E
 10
-121.5576
 20
60.0208
 30
0.0
  0
VERTEX
  8
ARM-PLAN
  6
CONTINUOUS
 62
     7
  5
19F
 10
-118.7292
 20
57.1924
 30
0.0
  0
VERTEX
  8
ARM-PLAN
  6
CONTINUOUS
 62
     7
  5
1A0
 10
-120.8506
 20
55.071
 30
0.0
  0
VERTEX
  8
ARM-PLAN
  6
CONTINUOUS
 62
     7
  5
1A1
 10
-123.6791
 20
57.8994
 30
0.0
  0
SEQEND
  8
ARM-PLAN
  6
CONTINUOUS
  5
1A2
  0
POLYLINE
  8
ARM-PLAN
  6
CONTINUOUS
 62
     7
  5
1A3
 66
     1
 10
0.0
 20
0.0
 30
0.0
 70
     5
 75
     5
  0
VERTEX
  8
ARM-PLAN
  6
CONTINUOUS
 62
     7
  5
1A4
 10
-140.6494
 20
40.929
 30
0.0
  0
VERTEX
  8
ARM-PLAN
  6
CONTINUOUS
 62
     7
  5
1A5
 10
-137.821
 20
38.1006
 30
0.0
  0
VERTEX
  8
ARM-PLAN
  6
CONTINUOUS
 62
     7
  5
1A6
 10
-139.9424
 20
35.9792
 30
0.0
  0
VERTEX
  8
ARM-PLAN
  6
CONTINUOUS
 62
     7
  5
1A7
 10
-142.7708
 20
38.8076
 30
0.0
  0
SEQEND
  8
ARM-PLAN
  6
CONTINUOUS
  5
1A8
  0
ENDSEC
  0
EOF
