  0
SECTION
  2
HEADER
  9
$ACADVER
  1
AC1009
  9
$INSBASE
 10
0.0
 20
0.0
 30
0.0
  9
$EXTMIN
 10
-474.66667
 20
-396.0
 30
0.0
  9
$EXTMAX
 10
474.66667
 20
396.0
 30
0.0
  9
$LIMMIN
 10
0.0
 20
0.0
  9
$LIMMAX
 10
0.0
 20
0.0
  9
$ORTHOMODE
 70
     0
  9
$REGENMODE
 70
     1
  9
$FILLMODE
 70
     1
  9
$QTEXTMODE
 70
     0
  9
$MIRRTEXT
 70
     1
  9
$DRAGMODE
 70
     2
  9
$LTSCALE
 40
96.0
  9
$OSMODE
 70
     0
  9
$ATTMODE
 70
     1
  9
$TEXTSIZE
 40
0.2
  9
$TRACEWID
 40
0.05
  9
$TEXTSTYLE
  7
STANDARD
  9
$CLAYER
  8
0
  9
$CELTYPE
  6
CONTINUOUS
  9
$CECOLOR
 62
   256
  9
$DIMSCALE
 40
1.0
  9
$DIMASZ
 40
0.18
  9
$DIMEXO
 40
0.0625
  9
$DIMDLI
 40
0.38
  9
$DIMRND
 40
0.0
  9
$DIMDLE
 40
0.0
  9
$DIMEXE
 40
0.18
  9
$DIMTP
 40
0.0
  9
$DIMTM
 40
0.0
  9
$DIMTXT
 40
0.18
  9
$DIMCEN
 40
0.09
  9
$DIMTSZ
 40
0.0
  9
$DIMTOL
 70
     0
  9
$DIMLIM
 70
     0
  9
$DIMTIH
 70
     1
  9
$DIMTOH
 70
     1
  9
$DIMSE1
 70
     0
  9
$DIMSE2
 70
     0
  9
$DIMTAD
 70
     0
  9
$DIMZIN
 70
     0
  9
$DIMBLK
  1

  9
$DIMASO
 70
     1
  9
$DIMSHO
 70
     1
  9
$DIMPOST
  1

  9
$DIMAPOST
  1

  9
$DIMALT
 70
     0
  9
$DIMALTD
 70
     2
  9
$DIMALTF
 40
25.4
  9
$DIMLFAC
 40
1.0
  9
$DIMTOFL
 70
     0
  9
$DIMTVP
 40
0.0
  9
$DIMTIX
 70
     0
  9
$DIMSOXD
 70
     0
  9
$DIMSAH
 70
     0
  9
$DIMBLK1
  1

  9
$DIMBLK2
  1

  9
$DIMSTYLE
  2
STANDARD
  9
$DIMCLRD
 70
     0
  9
$DIMCLRE
 70
     0
  9
$DIMCLRT
 70
     0
  9
$DIMTFAC
 40
1.0
  9
$DIMGAP
 40
0.09
  9
$LUNITS
 70
     3
  9
$LUPREC
 70
     4
  9
$AXISMODE
 70
     0
  9
$AXISUNIT
 10
0.0
 20
0.0
  9
$SKETCHINC
 40
0.1
  9
$FILLETRAD
 40
0.0
  9
$AUNITS
 70
     0
  9
$AUPREC
 70
     0
  9
$MENU
  1
acad
  9
$ELEVATION
 40
0.0
  9
$PELEVATION
 40
0.0
  9
$THICKNESS
 40
0.0
  9
$LIMCHECK
 70
     0
  9
$BLIPMODE
 70
     1
  9
$CHAMFERA
 40
0.0
  9
$CHAMFERB
 40
0.0
  9
$SKPOLY
 70
     0
  9
$TDCREATE
 40
2452457.597847222
  9
$TDUPDATE
 40
2452457.597847222
  9
$TDINDWG
 40
0.0000000000
  9
$TDUSRTIMER
 40
0.0000000000
  9
$USRTIMER
 70
     1
  9
$ANGBASE
 50
0.0
  9
$ANGDIR
 70
     0
  9
$PDMODE
 70
     0
  9
$PDSIZE
 40
0.0
  9
$PLINEWID
 40
0.0
  9
$COORDS
 70
     0
  9
$SPLFRAME
 70
     0
  9
$SPLINETYPE
 70
     6
  9
$SPLINESEGS
 70
     8
  9
$ATTDIA
 70
     0
  9
$ATTREQ
 70
     1
  9
$HANDLING
 70
     1
  9
$HANDSEED
  5
4F2
  9
$SURFTAB1
 70
     6
  9
$SURFTAB2
 70
     6
  9
$SURFTYPE
 70
     6
  9
$SURFU
 70
     6
  9
$SURFV
 70
     6
  9
$UCSNAME
  2

  9
$UCSORG
 10
0.0
 20
0.0
 30
0.0
  9
$UCSXDIR
 10
1.0
 20
0.0
 30
0.0
  9
$UCSYDIR
 10
0.0
 20
1.0
 30
0.0
  9
$PUCSNAME
  2

  9
$PUCSORG
 10
0.0
 20
0.0
 30
0.0
  9
$PUCSXDIR
 10
1.0
 20
0.0
 30
0.0
  9
$PUCSYDIR
 10
0.0
 20
1.0
 30
0.0
  9
$USERI1
 70
     0
  9
$USERI2
 70
     0
  9
$USERI3
 70
     0
  9
$USERI4
 70
     0
  9
$USERI5
 70
     0
  9
$USERR1
 40
0.0
  9
$USERR2
 40
0.0
  9
$USERR3
 40
0.0
  9
$USERR4
 40
0.0
  9
$USERR5
 40
0.0
  9
$WORLDVIEW
 70
     1
  9
$SHADEDGE
 70
     3
  9
$SHADEDIF
 70
    70
  9
$TILEMODE
 70
     1
  9
$MAXACTVP
 70
    16
  9
$PINSBASE
 10
0.0
 20
0.0
 30
0.0
  9
$PLIMCHECK
 70
     0
  9
$PEXTMIN
 10
1.000000E+20
 20
1.000000E+20
 30
1.000000E+20
  9
$PEXTMAX
 10
-1.000000E+20
 20
-1.000000E+20
 30
-1.000000E+20
  9
$PLIMMIN
 10
0.0
 20
0.0
  9
$PLIMMAX
 10
12.0
 20
9.0
  9
$UNITMODE
 70
     0
  9
$VISRETAIN
 70
     0
  9
$PLINEGEN
 70
     1
  9
$PSLTSCALE
 70
     0
  9
$TREEDEPTH
 70
  3020
  9
$DWGCODEPAGE
  3
dos850
  0
ENDSEC
  0
SECTION
  2
TABLES
  0
TABLE
  2
VPORT
 70
     1
  0
VPORT
  2
*ACTIVE
 70
     0
 10
0.0
 20
0.0
 11
1.0
 21
1.0
 12
0.0
 22
0.0
 13
0.0
 23
0.0
 14
1.0
 24
1.0
 15
0.0
 25
0.0
 16
0.0
 26
0.0
 36
1.0
 17
0.0
 27
0.0
 37
0.0
 40
792.0
 41
0.688564
 42
50.0
 43
0.0
 44
0.0
 50
0.0
 51
0.0
 71
     0
 72
   100
 73
     1
 74
     1
 75
     0
 76
     0
 77
     0
 78
     0
  0
ENDTAB
  0
TABLE
  2
LTYPE
 70
    11
  0
LTYPE
  2
CONTINUOUS
 70
     0
  3
Solid line
 72
    65
 73
     0
 40
0.0
  0
LTYPE
  2
MCDASH01
 70
     0
  3

 72
    65
 73
     2
 40
0.083328
 49
0.041656
 49
-0.041672
  0
LTYPE
  2
MCDASH02
 70
     0
  3

 72
    65
 73
     2
 40
0.138885
 49
0.097214
 49
-0.041672
  0
LTYPE
  2
MCDASH03
 70
     0
  3

 72
    65
 73
     2
 40
0.25
 49
0.208328
 49
-0.041672
  0
LTYPE
  2
MCDASH04
 70
     0
  3

 72
    65
 73
     2
 40
0.305542
 49
0.263885
 49
-0.041656
  0
LTYPE
  2
MCDASH05
 70
     0
  3

 72
    65
 73
     2
 40
0.041656
 49
0.013885
 49
-0.027771
  0
LTYPE
  2
MCDASH06
 70
     0
  3

 72
    65
 73
     4
 40
0.208328
 49
0.125
 49
-0.041656
 49
0.013885
 49
-0.027786
  0
LTYPE
  2
MCDASH07
 70
     0
  3

 72
    65
 73
     6
 40
0.375
 49
0.125
 49
-0.041656
 49
0.125
 49
-0.041672
 49
0.013885
 49
-0.027786
  0
LTYPE
  2
MCDASH08
 70
     0
  3

 72
    65
 73
     6
 40
0.25
 49
0.125
 49
-0.041656
 49
0.013885
 49
-0.027786
 49
0.013885
 49
-0.027786
  0
LTYPE
  2
MCDASH09
 70
     0
  3

 72
    65
 73
     4
 40
1.0
 49
0.75
 49
-0.055557
 49
0.138885
 49
-0.055557
  0
LTYPE
  2
MCDASH10
 70
     0
  3

 72
    65
 73
     6
 40
1.1875
 49
0.75
 49
-0.055557
 49
0.138885
 49
-0.055557
 49
0.125
 49
-0.0625
  0
ENDTAB
  0
TABLE
  2
LAYER
 70
    10
  0
LAYER
  2
0
 70
     0
 62
     7
  6
CONTINUOUS
  0
LAYER
  2
GRID
 70
    64
 62
     7
  6
CONTINUOUS
  0
LAYER
  2
FLOOR
 70
    64
 62
     7
  6
CONTINUOUS
  0
LAYER
  2
NOSE
 70
    64
 62
     7
  6
CONTINUOUS
  0
LAYER
  2
HEAD
 70
    64
 62
     7
  6
CONTINUOUS
  0
LAYER
  2
ARM
 70
    64
 62
     7
  6
CONTINUOUS
  0
LAYER
  2
TRACK
 70
    64
 62
     7
  6
CONTINUOUS
  0
LAYER
  2
TRAILER
 70
    64
 62
     7
  6
CONTINUOUS
  0
LAYER
  2
DOLLY
 70
    64
 62
     7
  6
CONTINUOUS
  0
LAYER
  2
IMAGE
 70
    64
 62
     7
  6
CONTINUOUS
  0
ENDTAB
  0
TABLE
  2
STYLE
 70
     1
  0
STYLE
  2
STANDARD
 70
     0
 40
0.0
 41
1.0
 50
0.0
 71
     0
 42
0.0
  3
txt
  4

  0
ENDTAB
  0
TABLE
  2
VIEW
 70
     0
  0
ENDTAB
  0
TABLE
  2
UCS
 70
     0
  0
ENDTAB
  0
TABLE
  2
APPID
 70
     1
  0
APPID
  2
ACAD
 70
     0
  0
ENDTAB
  0
TABLE
  2
DIMSTYLE
 70
     1
  0
DIMSTYLE
  2
STANDARD
 70
     0
  3

  4

  5

  6

  7

 40
1.0
 41
0.18
 42
0.0625
 43
0.38
 44
0.18
 45
0.0
 46
0.0
 47
0.0
 48
0.0
140
0.18
141
0.09
142
0.0
143
25.4
144
1.0
145
0.0
146
1.0
147
0.09
 71
     0
 72
     0
 73
     1
 74
     1
 75
     0
 76
     0
 77
     0
 78
     0
170
     0
171
     2
172
     0
173
     0
174
     0
175
     0
176
     0
177
     0
178
     0
  0
ENDTAB
  0
ENDSEC
  0
SECTION
  2
BLOCKS
  0
ENDSEC
  0
SECTION
  2
ENTITIES
  0
LINE
  8
GRID
  6
CONTINUOUS
 62
     9
  5
33
 10
-470.0
 20
-120.0
 30
0.0
 11
466.0
 21
-120.0
 31
0.0
  0
LINE
  8
GRID
  6
CONTINUOUS
 62
     9
  5
34
 10
-470.0
 20
-240.0
 30
0.0
 11
466.0
 21
-240.0
 31
0.0
  0
LINE
  8
GRID
  6
CONTINUOUS
 62
     9
  5
35
 10
-470.0
 20
120.0
 30
0.0
 11
466.0
 21
120.0
 31
0.0
  0
LINE
  8
GRID
  6
CONTINUOUS
 62
     9
  5
36
 10
-470.0
 20
240.0
 30
0.0
 11
466.0
 21
240.0
 31
0.0
  0
LINE
  8
GRID
  6
CONTINUOUS
 62
     9
  5
37
 10
-374.0
 20
360.0
 30
0.0
 11
-374.0
 21
-360.0
 31
0.0
  0
LINE
  8
GRID
  6
CONTINUOUS
 62
     9
  5
38
 10
-254.0
 20
360.0
 30
0.0
 11
-254.0
 21
-360.0
 31
0.0
  0
LINE
  8
GRID
  6
CONTINUOUS
 62
     9
  5
39
 10
-134.0
 20
360.0
 30
0.0
 11
-134.0
 21
-360.0
 31
0.0
  0
LINE
  8
GRID
  6
CONTINUOUS
 62
     9
  5
3A
 10
-14.0
 20
360.0
 30
0.0
 11
-14.0
 21
-360.0
 31
0.0
  0
LINE
  8
GRID
  6
CONTINUOUS
 62
     9
  5
3B
 10
106.0
 20
360.0
 30
0.0
 11
106.0
 21
-360.0
 31
0.0
  0
LINE
  8
GRID
  6
CONTINUOUS
 62
     9
  5
3C
 10
226.0
 20
360.0
 30
0.0
 11
226.0
 21
-360.0
 31
0.0
  0
LINE
  8
GRID
  6
CONTINUOUS
 62
     9
  5
3D
 10
346.0
 20
360.0
 30
0.0
 11
346.0
 21
-360.0
 31
0.0
  0
LINE
  8
GRID
  6
CONTINUOUS
 62
   254
  5
3E
 10
-470.0
 20
336.0
 30
0.0
 11
466.0
 21
336.0
 31
0.0
  0
LINE
  8
GRID
  6
CONTINUOUS
 62
   254
  5
3F
 10
-470.0
 20
312.0
 30
0.0
 11
466.0
 21
312.0
 31
0.0
  0
LINE
  8
GRID
  6
CONTINUOUS
 62
   254
  5
40
 10
-470.0
 20
288.0
 30
0.0
 11
466.0
 21
288.0
 31
0.0
  0
LINE
  8
GRID
  6
CONTINUOUS
 62
   254
  5
41
 10
-470.0
 20
264.0
 30
0.0
 11
466.0
 21
264.0
 31
0.0
  0
LINE
  8
GRID
  6
CONTINUOUS
 62
   254
  5
42
 10
-470.0
 20
240.0
 30
0.0
 11
466.0
 21
240.0
 31
0.0
  0
LINE
  8
GRID
  6
CONTINUOUS
 62
   254
  5
43
 10
-470.0
 20
216.0
 30
0.0
 11
466.0
 21
216.0
 31
0.0
  0
LINE
  8
GRID
  6
CONTINUOUS
 62
   254
  5
44
 10
-470.0
 20
192.0
 30
0.0
 11
466.0
 21
192.0
 31
0.0
  0
LINE
  8
GRID
  6
CONTINUOUS
 62
   254
  5
45
 10
-470.0
 20
168.0
 30
0.0
 11
466.0
 21
168.0
 31
0.0
  0
LINE
  8
GRID
  6
CONTINUOUS
 62
   254
  5
46
 10
-470.0
 20
144.0
 30
0.0
 11
466.0
 21
144.0
 31
0.0
  0
LINE
  8
GRID
  6
CONTINUOUS
 62
   254
  5
47
 10
-470.0
 20
120.0
 30
0.0
 11
466.0
 21
120.0
 31
0.0
  0
LINE
  8
GRID
  6
CONTINUOUS
 62
   254
  5
48
 10
-470.0
 20
96.0
 30
0.0
 11
466.0
 21
96.0
 31
0.0
  0
LINE
  8
GRID
  6
CONTINUOUS
 62
   254
  5
49
 10
-470.0
 20
72.0
 30
0.0
 11
466.0
 21
72.0
 31
0.0
  0
LINE
  8
GRID
  6
CONTINUOUS
 62
   254
  5
4A
 10
-470.0
 20
48.0
 30
0.0
 11
466.0
 21
48.0
 31
0.0
  0
LINE
  8
GRID
  6
CONTINUOUS
 62
   254
  5
4B
 10
-470.0
 20
24.0
 30
0.0
 11
466.0
 21
24.0
 31
0.0
  0
LINE
  8
GRID
  6
CONTINUOUS
 62
   254
  5
4C
 10
-470.0
 20
0.0
 30
0.0
 11
466.0
 21
0.0
 31
0.0
  0
LINE
  8
GRID
  6
CONTINUOUS
 62
   254
  5
4D
 10
-470.0
 20
-24.0
 30
0.0
 11
466.0
 21
-24.0
 31
0.0
  0
LINE
  8
GRID
  6
CONTINUOUS
 62
   254
  5
4E
 10
-470.0
 20
-48.0
 30
0.0
 11
466.0
 21
-48.0
 31
0.0
  0
LINE
  8
GRID
  6
CONTINUOUS
 62
   254
  5
4F
 10
-470.0
 20
-72.0
 30
0.0
 11
466.0
 21
-72.0
 31
0.0
  0
LINE
  8
GRID
  6
CONTINUOUS
 62
   254
  5
50
 10
-470.0
 20
-96.0
 30
0.0
 11
466.0
 21
-96.0
 31
0.0
  0
LINE
  8
GRID
  6
CONTINUOUS
 62
   254
  5
51
 10
-470.0
 20
-120.0
 30
0.0
 11
466.0
 21
-120.0
 31
0.0
  0
LINE
  8
GRID
  6
CONTINUOUS
 62
   254
  5
52
 10
-470.0
 20
-144.0
 30
0.0
 11
466.0
 21
-144.0
 31
0.0
  0
LINE
  8
GRID
  6
CONTINUOUS
 62
   254
  5
53
 10
-470.0
 20
-168.0
 30
0.0
 11
466.0
 21
-168.0
 31
0.0
  0
LINE
  8
GRID
  6
CONTINUOUS
 62
   254
  5
54
 10
-470.0
 20
-192.0
 30
0.0
 11
466.0
 21
-192.0
 31
0.0
  0
LINE
  8
GRID
  6
CONTINUOUS
 62
   254
  5
55
 10
-470.0
 20
-216.0
 30
0.0
 11
466.0
 21
-216.0
 31
0.0
  0
LINE
  8
GRID
  6
CONTINUOUS
 62
   254
  5
56
 10
-470.0
 20
-240.0
 30
0.0
 11
466.0
 21
-240.0
 31
0.0
  0
LINE
  8
GRID
  6
CONTINUOUS
 62
   254
  5
57
 10
-470.0
 20
-264.0
 30
0.0
 11
466.0
 21
-264.0
 31
0.0
  0
LINE
  8
GRID
  6
CONTINUOUS
 62
   254
  5
58
 10
-470.0
 20
-288.0
 30
0.0
 11
466.0
 21
-288.0
 31
0.0
  0
LINE
  8
GRID
  6
CONTINUOUS
 62
   254
  5
59
 10
-470.0
 20
-312.0
 30
0.0
 11
466.0
 21
-312.0
 31
0.0
  0
LINE
  8
GRID
  6
CONTINUOUS
 62
   254
  5
5A
 10
-470.0
 20
-336.0
 30
0.0
 11
466.0
 21
-336.0
 31
0.0
  0
LINE
  8
GRID
  6
CONTINUOUS
 62
   254
  5
5B
 10
-446.0
 20
360.0
 30
0.0
 11
-446.0
 21
-360.0
 31
0.0
  0
LINE
  8
GRID
  6
CONTINUOUS
 62
   254
  5
5C
 10
-422.0
 20
360.0
 30
0.0
 11
-422.0
 21
-360.0
 31
0.0
  0
LINE
  8
GRID
  6
CONTINUOUS
 62
   254
  5
5D
 10
-398.0
 20
360.0
 30
0.0
 11
-398.0
 21
-360.0
 31
0.0
  0
LINE
  8
GRID
  6
CONTINUOUS
 62
   254
  5
5E
 10
-374.0
 20
360.0
 30
0.0
 11
-374.0
 21
-360.0
 31
0.0
  0
LINE
  8
GRID
  6
CONTINUOUS
 62
   254
  5
5F
 10
-350.0
 20
360.0
 30
0.0
 11
-350.0
 21
-360.0
 31
0.0
  0
LINE
  8
GRID
  6
CONTINUOUS
 62
   254
  5
60
 10
-326.0
 20
360.0
 30
0.0
 11
-326.0
 21
-360.0
 31
0.0
  0
LINE
  8
GRID
  6
CONTINUOUS
 62
   254
  5
61
 10
-302.0
 20
360.0
 30
0.0
 11
-302.0
 21
-360.0
 31
0.0
  0
LINE
  8
GRID
  6
CONTINUOUS
 62
   254
  5
62
 10
-278.0
 20
360.0
 30
0.0
 11
-278.0
 21
-360.0
 31
0.0
  0
LINE
  8
GRID
  6
CONTINUOUS
 62
   254
  5
63
 10
-254.0
 20
360.0
 30
0.0
 11
-254.0
 21
-360.0
 31
0.0
  0
LINE
  8
GRID
  6
CONTINUOUS
 62
   254
  5
64
 10
-230.0
 20
360.0
 30
0.0
 11
-230.0
 21
-360.0
 31
0.0
  0
LINE
  8
GRID
  6
CONTINUOUS
 62
   254
  5
65
 10
-206.0
 20
360.0
 30
0.0
 11
-206.0
 21
-360.0
 31
0.0
  0
LINE
  8
GRID
  6
CONTINUOUS
 62
   254
  5
66
 10
-182.0
 20
360.0
 30
0.0
 11
-182.0
 21
-360.0
 31
0.0
  0
LINE
  8
GRID
  6
CONTINUOUS
 62
   254
  5
67
 10
-158.0
 20
360.0
 30
0.0
 11
-158.0
 21
-360.0
 31
0.0
  0
LINE
  8
GRID
  6
CONTINUOUS
 62
   254
  5
68
 10
-134.0
 20
360.0
 30
0.0
 11
-134.0
 21
-360.0
 31
0.0
  0
LINE
  8
GRID
  6
CONTINUOUS
 62
   254
  5
69
 10
-110.0
 20
360.0
 30
0.0
 11
-110.0
 21
-360.0
 31
0.0
  0
LINE
  8
GRID
  6
CONTINUOUS
 62
   254
  5
6A
 10
-86.0
 20
360.0
 30
0.0
 11
-86.0
 21
-360.0
 31
0.0
  0
LINE
  8
GRID
  6
CONTINUOUS
 62
   254
  5
6B
 10
-62.0
 20
360.0
 30
0.0
 11
-62.0
 21
-360.0
 31
0.0
  0
LINE
  8
GRID
  6
CONTINUOUS
 62
   254
  5
6C
 10
-38.0
 20
360.0
 30
0.0
 11
-38.0
 21
-360.0
 31
0.0
  0
LINE
  8
GRID
  6
CONTINUOUS
 62
   254
  5
6D
 10
-14.0
 20
360.0
 30
0.0
 11
-14.0
 21
-360.0
 31
0.0
  0
LINE
  8
GRID
  6
CONTINUOUS
 62
   254
  5
6E
 10
10.0
 20
360.0
 30
0.0
 11
10.0
 21
-360.0
 31
0.0
  0
LINE
  8
GRID
  6
CONTINUOUS
 62
   254
  5
6F
 10
34.0
 20
360.0
 30
0.0
 11
34.0
 21
-360.0
 31
0.0
  0
LINE
  8
GRID
  6
CONTINUOUS
 62
   254
  5
70
 10
58.0
 20
360.0
 30
0.0
 11
58.0
 21
-360.0
 31
0.0
  0
LINE
  8
GRID
  6
CONTINUOUS
 62
   254
  5
71
 10
82.0
 20
360.0
 30
0.0
 11
82.0
 21
-360.0
 31
0.0
  0
LINE
  8
GRID
  6
CONTINUOUS
 62
   254
  5
72
 10
106.0
 20
360.0
 30
0.0
 11
106.0
 21
-360.0
 31
0.0
  0
LINE
  8
GRID
  6
CONTINUOUS
 62
   254
  5
73
 10
130.0
 20
360.0
 30
0.0
 11
130.0
 21
-360.0
 31
0.0
  0
LINE
  8
GRID
  6
CONTINUOUS
 62
   254
  5
74
 10
154.0
 20
360.0
 30
0.0
 11
154.0
 21
-360.0
 31
0.0
  0
LINE
  8
GRID
  6
CONTINUOUS
 62
   254
  5
75
 10
178.0
 20
360.0
 30
0.0
 11
178.0
 21
-360.0
 31
0.0
  0
LINE
  8
GRID
  6
CONTINUOUS
 62
   254
  5
76
 10
202.0
 20
360.0
 30
0.0
 11
202.0
 21
-360.0
 31
0.0
  0
LINE
  8
GRID
  6
CONTINUOUS
 62
   254
  5
77
 10
226.0
 20
360.0
 30
0.0
 11
226.0
 21
-360.0
 31
0.0
  0
LINE
  8
GRID
  6
CONTINUOUS
 62
   254
  5
78
 10
250.0
 20
360.0
 30
0.0
 11
250.0
 21
-360.0
 31
0.0
  0
LINE
  8
GRID
  6
CONTINUOUS
 62
   254
  5
79
 10
274.0
 20
360.0
 30
0.0
 11
274.0
 21
-360.0
 31
0.0
  0
LINE
  8
GRID
  6
CONTINUOUS
 62
   254
  5
7A
 10
298.0
 20
360.0
 30
0.0
 11
298.0
 21
-360.0
 31
0.0
  0
LINE
  8
GRID
  6
CONTINUOUS
 62
   254
  5
7B
 10
322.0
 20
360.0
 30
0.0
 11
322.0
 21
-360.0
 31
0.0
  0
LINE
  8
GRID
  6
CONTINUOUS
 62
   254
  5
7C
 10
346.0
 20
360.0
 30
0.0
 11
346.0
 21
-360.0
 31
0.0
  0
LINE
  8
GRID
  6
CONTINUOUS
 62
   254
  5
7D
 10
370.0
 20
360.0
 30
0.0
 11
370.0
 21
-360.0
 31
0.0
  0
LINE
  8
GRID
  6
CONTINUOUS
 62
   254
  5
7E
 10
394.0
 20
360.0
 30
0.0
 11
394.0
 21
-360.0
 31
0.0
  0
LINE
  8
GRID
  6
CONTINUOUS
 62
   254
  5
7F
 10
418.0
 20
360.0
 30
0.0
 11
418.0
 21
-360.0
 31
0.0
  0
LINE
  8
GRID
  6
CONTINUOUS
 62
   254
  5
80
 10
442.0
 20
360.0
 30
0.0
 11
442.0
 21
-360.0
 31
0.0
  0
LINE
  8
GRID
  6
CONTINUOUS
 62
     9
  5
81
 10
346.0
 20
360.0
 30
0.0
 11
346.0
 21
-360.0
 31
0.0
  0
LINE
  8
GRID
  6
CONTINUOUS
 62
     9
  5
82
 10
-470.0
 20
-240.0
 30
0.0
 11
466.0
 21
-240.0
 31
0.0
  0
LINE
  8
GRID
  6
CONTINUOUS
 62
     9
  5
83
 10
-470.0
 20
-120.0
 30
0.0
 11
466.0
 21
-120.0
 31
0.0
  0
LINE
  8
GRID
  6
CONTINUOUS
 62
     9
  5
84
 10
-470.0
 20
0.0
 30
0.0
 11
466.0
 21
0.0
 31
0.0
  0
LINE
  8
GRID
  6
CONTINUOUS
 62
     9
  5
85
 10
-470.0
 20
120.0
 30
0.0
 11
466.0
 21
120.0
 31
0.0
  0
LINE
  8
GRID
  6
CONTINUOUS
 62
     9
  5
86
 10
-470.0
 20
240.0
 30
0.0
 11
466.0
 21
240.0
 31
0.0
  0
LINE
  8
GRID
  6
CONTINUOUS
 62
     9
  5
87
 10
226.0
 20
360.0
 30
0.0
 11
226.0
 21
-360.0
 31
0.0
  0
LINE
  8
GRID
  6
CONTINUOUS
 62
     9
  5
88
 10
106.0
 20
360.0
 30
0.0
 11
106.0
 21
-360.0
 31
0.0
  0
LINE
  8
GRID
  6
CONTINUOUS
 62
     9
  5
89
 10
-14.0
 20
360.0
 30
0.0
 11
-14.0
 21
-360.0
 31
0.0
  0
LINE
  8
GRID
  6
CONTINUOUS
 62
     9
  5
8A
 10
-134.0
 20
360.0
 30
0.0
 11
-134.0
 21
-360.0
 31
0.0
  0
LINE
  8
GRID
  6
CONTINUOUS
 62
     9
  5
8B
 10
-254.0
 20
360.0
 30
0.0
 11
-254.0
 21
-360.0
 31
0.0
  0
LINE
  8
GRID
  6
CONTINUOUS
 62
     9
  5
8C
 10
-374.0
 20
360.0
 30
0.0
 11
-374.0
 21
-360.0
 31
0.0
  0
POLYLINE
  8
GRID
  6
CONTINUOUS
 62
     5
  5
8D
 66
     1
 10
0.0
 20
0.0
 30
0.0
 70
     5
 40
1.344
 41
1.344
 75
     5
  0
VERTEX
  8
GRID
  6
CONTINUOUS
 62
     5
  5
8E
 10
-470.0
 20
360.0
 30
0.0
  0
VERTEX
  8
GRID
  6
CONTINUOUS
 62
     5
  5
8F
 10
466.0
 20
360.0
 30
0.0
  0
VERTEX
  8
GRID
  6
CONTINUOUS
 62
     5
  5
90
 10
466.0
 20
-360.0
 30
0.0
  0
VERTEX
  8
GRID
  6
CONTINUOUS
 62
     5
  5
91
 10
-470.0
 20
-360.0
 30
0.0
  0
SEQEND
  8
GRID
  6
CONTINUOUS
  5
92
  0
POLYLINE
  8
FLOOR
  6
CONTINUOUS
 62
     7
  5
93
 66
     1
 10
0.0
 20
0.0
 30
0.0
 40
1.344
 41
1.344
  0
VERTEX
  8
FLOOR
  6
CONTINUOUS
 62
     7
  5
94
 10
-470.0
 20
0.0
 30
0.0
  0
VERTEX
  8
FLOOR
  6
CONTINUOUS
 62
     7
  5
95
 10
466.0
 20
0.0
 30
0.0
  0
SEQEND
  8
FLOOR
  6
CONTINUOUS
  5
96
  0
POLYLINE
  8
ARM
  6
CONTINUOUS
 62
     7
  5
97
 66
     1
 10
0.0
 20
0.0
 30
0.0
 70
     1
  0
VERTEX
  8
ARM
  6
CONTINUOUS
 62
     7
  5
98
 10
-49.0486
 20
150.9619
 30
0.0
  0
VERTEX
  8
ARM
  6
CONTINUOUS
 62
     7
  5
99
 10
-49.0484
 20
126.9618
 30
0.0
  0
VERTEX
  8
ARM
  6
CONTINUOUS
 62
     7
  5
9A
 10
-97.0485
 20
126.9615
 30
0.0
  0
VERTEX
  8
ARM
  6
CONTINUOUS
 62
     7
  5
9B
 10
-97.0486
 20
150.9615
 30
0.0
  0
SEQEND
  8
ARM
  6
CONTINUOUS
  5
9C
  0
POLYLINE
  8
ARM
  6
CONTINUOUS
 62
     7
  5
9D
 66
     1
 10
0.0
 20
0.0
 30
0.0
 70
     5
 75
     5
  0
VERTEX
  8
ARM
  6
CONTINUOUS
 62
     7
  5
9E
 10
-71.5486
 20
148.4617
 30
0.0
  0
VERTEX
  8
ARM
  6
CONTINUOUS
 62
     7
  5
9F
 10
-71.5486
 20
143.2043
 30
0.0
  0
VERTEX
  8
ARM
  6
CONTINUOUS
 62
     7
  5
A0
 10
-71.48921
 20
143.18331
 30
0.0
  0
VERTEX
  8
ARM
  6
CONTINUOUS
 62
     7
  5
A1
 10
-71.20255
 20
143.0708
 30
0.0
  0
VERTEX
  8
ARM
  6
CONTINUOUS
 62
     7
  5
A2
 10
-70.92448
 20
142.93906
 30
0.0
  0
VERTEX
  8
ARM
  6
CONTINUOUS
 62
     7
  5
A3
 10
-70.65601
 20
142.7886
 30
0.0
  0
VERTEX
  8
ARM
  6
CONTINUOUS
 62
     7
  5
A4
 10
-70.39845
 20
142.62013
 30
0.0
  0
VERTEX
  8
ARM
  6
CONTINUOUS
 62
     7
  5
A5
 10
-70.15306
 20
142.4345
 30
0.0
  0
VERTEX
  8
ARM
  6
CONTINUOUS
 62
     7
  5
A6
 10
-69.92087
 20
142.23249
 30
0.0
  0
VERTEX
  8
ARM
  6
CONTINUOUS
 62
     7
  5
A7
 10
-69.7031
 20
142.01514
 30
0.0
  0
VERTEX
  8
ARM
  6
CONTINUOUS
 62
     7
  5
A8
 10
-69.50104
 20
141.78385
 30
0.0
  0
VERTEX
  8
ARM
  6
CONTINUOUS
 62
     7
  5
A9
 10
-69.4613
 20
141.7351
 30
0.0
  0
VERTEX
  8
ARM
  6
CONTINUOUS
 62
     7
  5
AA
 10
-51.5486
 20
147.6908
 30
0.0
  0
VERTEX
  8
ARM
  6
CONTINUOUS
 62
     7
  5
AB
 10
-51.5486
 20
148.4618
 30
0.0
  0
VERTEX
  8
ARM
  6
CONTINUOUS
 62
     7
  5
AC
 10
-71.5486
 20
148.4617
 30
0.0
  0
SEQEND
  8
ARM
  6
CONTINUOUS
  5
AD
  0
POLYLINE
  8
ARM
  6
CONTINUOUS
 62
     7
  5
AE
 66
     1
 10
0.0
 20
0.0
 30
0.0
 70
     1
  0
VERTEX
  8
ARM
  6
CONTINUOUS
 62
     7
  5
AF
 10
-51.5485
 20
133.3943
 30
0.0
  0
VERTEX
  8
ARM
  6
CONTINUOUS
 62
     7
  5
B0
 10
-51.5486
 20
144.5293
 30
0.0
  0
VERTEX
  8
ARM
  6
CONTINUOUS
 62
     7
  5
B1
 10
-68.2941
 20
138.9617
 30
0.0
  0
SEQEND
  8
ARM
  6
CONTINUOUS
  5
B2
  0
POLYLINE
  8
ARM
  6
CONTINUOUS
 62
     7
  5
B3
 66
     1
 10
0.0
 20
0.0
 30
0.0
 70
     5
 75
     5
  0
VERTEX
  8
ARM
  6
CONTINUOUS
 62
     7
  5
B4
 10
-74.5485
 20
129.4617
 30
0.0
  0
VERTEX
  8
ARM
  6
CONTINUOUS
 62
     7
  5
B5
 10
-74.5485
 20
134.7191
 30
0.0
  0
VERTEX
  8
ARM
  6
CONTINUOUS
 62
     7
  5
B6
 10
-74.60785
 20
134.74008
 30
0.0
  0
VERTEX
  8
ARM
  6
CONTINUOUS
 62
     7
  5
B7
 10
-74.89454
 20
134.85261
 30
0.0
  0
VERTEX
  8
ARM
  6
CONTINUOUS
 62
     7
  5
B8
 10
-75.1726
 20
134.98435
 30
0.0
  0
VERTEX
  8
ARM
  6
CONTINUOUS
 62
     7
  5
B9
 10
-75.44107
 20
135.13483
 30
0.0
  0
VERTEX
  8
ARM
  6
CONTINUOUS
 62
     7
  5
BA
 10
-75.69857
 20
135.30326
 30
0.0
  0
VERTEX
  8
ARM
  6
CONTINUOUS
 62
     7
  5
BB
 10
-75.94396
 20
135.48889
 30
0.0
  0
VERTEX
  8
ARM
  6
CONTINUOUS
 62
     7
  5
BC
 10
-76.17614
 20
135.69091
 30
0.0
  0
VERTEX
  8
ARM
  6
CONTINUOUS
 62
     7
  5
BD
 10
-76.39391
 20
135.90826
 30
0.0
  0
VERTEX
  8
ARM
  6
CONTINUOUS
 62
     7
  5
BE
 10
-76.59592
 20
136.1395
 30
0.0
  0
VERTEX
  8
ARM
  6
CONTINUOUS
 62
     7
  5
BF
 10
-76.6357
 20
136.1883
 30
0.0
  0
VERTEX
  8
ARM
  6
CONTINUOUS
 62
     7
  5
C0
 10
-94.5485
 20
130.2325
 30
0.0
  0
VERTEX
  8
ARM
  6
CONTINUOUS
 62
     7
  5
C1
 10
-94.5485
 20
129.4616
 30
0.0
  0
VERTEX
  8
ARM
  6
CONTINUOUS
 62
     7
  5
C2
 10
-74.5485
 20
129.4617
 30
0.0
  0
SEQEND
  8
ARM
  6
CONTINUOUS
  5
C3
  0
POLYLINE
  8
ARM
  6
CONTINUOUS
 62
     7
  5
C4
 66
     1
 10
0.0
 20
0.0
 30
0.0
 70
     1
  0
VERTEX
  8
ARM
  6
CONTINUOUS
 62
     7
  5
C5
 10
-94.5486
 20
144.529
 30
0.0
  0
VERTEX
  8
ARM
  6
CONTINUOUS
 62
     7
  5
C6
 10
-94.5485
 20
133.394
 30
0.0
  0
VERTEX
  8
ARM
  6
CONTINUOUS
 62
     7
  5
C7
 10
-77.8029
 20
138.9616
 30
0.0
  0
SEQEND
  8
ARM
  6
CONTINUOUS
  5
C8
  0
POLYLINE
  8
ARM
  6
CONTINUOUS
 62
     7
  5
C9
 66
     1
 10
0.0
 20
0.0
 30
0.0
 70
     5
 75
     5
  0
VERTEX
  8
ARM
  6
CONTINUOUS
 62
     7
  5
CA
 10
-71.5485
 20
129.4617
 30
0.0
  0
VERTEX
  8
ARM
  6
CONTINUOUS
 62
     7
  5
CB
 10
-51.5485
 20
129.4618
 30
0.0
  0
VERTEX
  8
ARM
  6
CONTINUOUS
 62
     7
  5
CC
 10
-51.5485
 20
130.2328
 30
0.0
  0
VERTEX
  8
ARM
  6
CONTINUOUS
 62
     7
  5
CD
 10
-69.4677
 20
136.1904
 30
0.0
  0
VERTEX
  8
ARM
  6
CONTINUOUS
 62
     7
  5
CE
 10
-69.50005
 20
136.15037
 30
0.0
  0
VERTEX
  8
ARM
  6
CONTINUOUS
 62
     7
  5
CF
 10
-69.70272
 20
135.91653
 30
0.0
  0
VERTEX
  8
ARM
  6
CONTINUOUS
 62
     7
  5
D0
 10
-69.92145
 20
135.69675
 30
0.0
  0
VERTEX
  8
ARM
  6
CONTINUOUS
 62
     7
  5
D1
 10
-70.15481
 20
135.49253
 30
0.0
  0
VERTEX
  8
ARM
  6
CONTINUOUS
 62
     7
  5
D2
 10
-70.40162
 20
135.30491
 30
0.0
  0
VERTEX
  8
ARM
  6
CONTINUOUS
 62
     7
  5
D3
 10
-70.66082
 20
135.1347
 30
0.0
  0
VERTEX
  8
ARM
  6
CONTINUOUS
 62
     7
  5
D4
 10
-70.93113
 20
134.98274
 30
0.0
  0
VERTEX
  8
ARM
  6
CONTINUOUS
 62
     7
  5
D5
 10
-71.21127
 20
134.84975
 30
0.0
  0
VERTEX
  8
ARM
  6
CONTINUOUS
 62
     7
  5
D6
 10
-71.50009
 20
134.73631
 30
0.0
  0
VERTEX
  8
ARM
  6
CONTINUOUS
 62
     7
  5
D7
 10
-71.5485
 20
134.7192
 30
0.0
  0
VERTEX
  8
ARM
  6
CONTINUOUS
 62
     7
  5
D8
 10
-71.5485
 20
129.4617
 30
0.0
  0
SEQEND
  8
ARM
  6
CONTINUOUS
  5
D9
  0
POLYLINE
  8
ARM
  6
CONTINUOUS
 62
     7
  5
DA
 66
     1
 10
0.0
 20
0.0
 30
0.0
 70
     5
 75
     5
  0
VERTEX
  8
ARM
  6
CONTINUOUS
 62
     7
  5
DB
 10
-74.5486
 20
148.4617
 30
0.0
  0
VERTEX
  8
ARM
  6
CONTINUOUS
 62
     7
  5
DC
 10
-94.5486
 20
148.4616
 30
0.0
  0
VERTEX
  8
ARM
  6
CONTINUOUS
 62
     7
  5
DD
 10
-94.5486
 20
147.6905
 30
0.0
  0
VERTEX
  8
ARM
  6
CONTINUOUS
 62
     7
  5
DE
 10
-76.6294
 20
141.7329
 30
0.0
  0
VERTEX
  8
ARM
  6
CONTINUOUS
 62
     7
  5
DF
 10
-76.59713
 20
141.77283
 30
0.0
  0
VERTEX
  8
ARM
  6
CONTINUOUS
 62
     7
  5
E0
 10
-76.39444
 20
142.00673
 30
0.0
  0
VERTEX
  8
ARM
  6
CONTINUOUS
 62
     7
  5
E1
 10
-76.17573
 20
142.22654
 30
0.0
  0
VERTEX
  8
ARM
  6
CONTINUOUS
 62
     7
  5
E2
 10
-75.94239
 20
142.43078
 30
0.0
  0
VERTEX
  8
ARM
  6
CONTINUOUS
 62
     7
  5
E3
 10
-75.69554
 20
142.61846
 30
0.0
  0
VERTEX
  8
ARM
  6
CONTINUOUS
 62
     7
  5
E4
 10
-75.43629
 20
142.78873
 30
0.0
  0
VERTEX
  8
ARM
  6
CONTINUOUS
 62
     7
  5
E5
 10
-75.16599
 20
142.94071
 30
0.0
  0
VERTEX
  8
ARM
  6
CONTINUOUS
 62
     7
  5
E6
 10
-74.88587
 20
143.07371
 30
0.0
  0
VERTEX
  8
ARM
  6
CONTINUOUS
 62
     7
  5
E7
 10
-74.59699
 20
143.18719
 30
0.0
  0
VERTEX
  8
ARM
  6
CONTINUOUS
 62
     7
  5
E8
 10
-74.5486
 20
143.2043
 30
0.0
  0
VERTEX
  8
ARM
  6
CONTINUOUS
 62
     7
  5
E9
 10
-74.5486
 20
148.4617
 30
0.0
  0
SEQEND
  8
ARM
  6
CONTINUOUS
  5
EA
  0
CIRCLE
  8
ARM
  6
CONTINUOUS
 62
     7
  5
EB
 10
-72.989
 20
138.9406
 30
0.0
 40
4.25
  0
POLYLINE
  8
ARM
  6
CONTINUOUS
 62
     7
  5
EC
 66
     1
 10
0.0
 20
0.0
 30
0.0
 70
     1
  0
VERTEX
  8
ARM
  6
CONTINUOUS
 62
     7
  5
ED
 10
-333.7986
 20
150.96
 30
0.0
  0
VERTEX
  8
ARM
  6
CONTINUOUS
 62
     7
  5
EE
 10
-332.7986
 20
150.96
 30
0.0
  0
VERTEX
  8
ARM
  6
CONTINUOUS
 62
     7
  5
EF
 10
-236.5486
 20
150.9606
 30
0.0
  0
VERTEX
  8
ARM
  6
CONTINUOUS
 62
     7
  5
F0
 10
-202.5486
 20
150.9608
 30
0.0
  0
VERTEX
  8
ARM
  6
CONTINUOUS
 62
     7
  5
F1
 10
-98.5486
 20
150.9615
 30
0.0
  0
VERTEX
  8
ARM
  6
CONTINUOUS
 62
     7
  5
F2
 10
-97.0486
 20
150.9615
 30
0.0
  0
VERTEX
  8
ARM
  6
CONTINUOUS
 62
     7
  5
F3
 10
-97.0486
 20
149.4616
 30
0.0
  0
VERTEX
  8
ARM
  6
CONTINUOUS
 62
     7
  5
F4
 10
-97.0485
 20
126.9615
 30
0.0
  0
VERTEX
  8
ARM
  6
CONTINUOUS
 62
     7
  5
F5
 10
-98.5485
 20
126.9615
 30
0.0
  0
VERTEX
  8
ARM
  6
CONTINUOUS
 62
     7
  5
F6
 10
-220.0485
 20
133.1584
 30
0.0
  0
VERTEX
  8
ARM
  6
CONTINUOUS
 62
     7
  5
F7
 10
-252.5485
 20
134.816
 30
0.0
  0
VERTEX
  8
ARM
  6
CONTINUOUS
 62
     7
  5
F8
 10
-332.7985
 20
138.96
 30
0.0
  0
VERTEX
  8
ARM
  6
CONTINUOUS
 62
     7
  5
F9
 10
-333.7985
 20
138.96
 30
0.0
  0
VERTEX
  8
ARM
  6
CONTINUOUS
 62
     7
  5
FA
 10
-333.7986
 20
149.96
 30
0.0
  0
SEQEND
  8
ARM
  6
CONTINUOUS
  5
FB
  0
POLYLINE
  8
ARM
  6
CONTINUOUS
 62
     7
  5
FC
 66
     1
 10
0.0
 20
0.0
 30
0.0
 70
     1
  0
VERTEX
  8
ARM
  6
CONTINUOUS
 62
     7
  5
FD
 10
-123.0486
 20
149.4614
 30
0.0
  0
VERTEX
  8
ARM
  6
CONTINUOUS
 62
     7
  5
FE
 10
-141.8383
 20
130.6714
 30
0.0
  0
VERTEX
  8
ARM
  6
CONTINUOUS
 62
     7
  5
FF
 10
-123.0485
 20
129.713
 30
0.0
  0
SEQEND
  8
ARM
  6
CONTINUOUS
  5
100
  0
POLYLINE
  8
ARM
  6
CONTINUOUS
 62
     7
  5
101
 66
     1
 10
0.0
 20
0.0
 30
0.0
 70
     1
  0
VERTEX
  8
ARM
  6
CONTINUOUS
 62
     7
  5
102
 10
-221.0881
 20
134.463
 30
0.0
  0
VERTEX
  8
ARM
  6
CONTINUOUS
 62
     7
  5
103
 10
-236.501
 20
149.6637
 30
0.0
  0
VERTEX
  8
ARM
  6
CONTINUOUS
 62
     7
  5
104
 10
-250.8303
 20
135.98
 30
0.0
  0
SEQEND
  8
ARM
  6
CONTINUOUS
  5
105
  0
POLYLINE
  8
ARM
  6
CONTINUOUS
 62
     7
  5
106
 66
     1
 10
0.0
 20
0.0
 30
0.0
 70
     1
  0
VERTEX
  8
ARM
  6
CONTINUOUS
 62
     7
  5
107
 10
-292.8823
 20
149.9603
 30
0.0
  0
VERTEX
  8
ARM
  6
CONTINUOUS
 62
     7
  5
108
 10
-280.7894
 20
137.2577
 30
0.0
  0
VERTEX
  8
ARM
  6
CONTINUOUS
 62
     7
  5
109
 10
-280.7273
 20
137.2545
 30
0.0
  0
VERTEX
  8
ARM
  6
CONTINUOUS
 62
     7
  5
10A
 10
-268.4397
 20
149.9604
 30
0.0
  0
SEQEND
  8
ARM
  6
CONTINUOUS
  5
10B
  0
POLYLINE
  8
ARM
  6
CONTINUOUS
 62
     7
  5
10C
 66
     1
 10
0.0
 20
0.0
 30
0.0
 70
     1
  0
VERTEX
  8
ARM
  6
CONTINUOUS
 62
     7
  5
10D
 10
-307.6751
 20
138.751
 30
0.0
  0
VERTEX
  8
ARM
  6
CONTINUOUS
 62
     7
  5
10E
 10
-295.7285
 20
149.9602
 30
0.0
  0
VERTEX
  8
ARM
  6
CONTINUOUS
 62
     7
  5
10F
 10
-318.8844
 20
149.9601
 30
0.0
  0
SEQEND
  8
ARM
  6
CONTINUOUS
  5
110
  0
POLYLINE
  8
ARM
  6
CONTINUOUS
 62
     7
  5
111
 66
     1
 10
0.0
 20
0.0
 30
0.0
 70
     1
  0
VERTEX
  8
ARM
  6
CONTINUOUS
 62
     7
  5
112
 10
-332.7986
 20
149.96
 30
0.0
  0
VERTEX
  8
ARM
  6
CONTINUOUS
 62
     7
  5
113
 10
-332.7985
 20
139.9103
 30
0.0
  0
VERTEX
  8
ARM
  6
CONTINUOUS
 62
     7
  5
114
 10
-321.7978
 20
149.9601
 30
0.0
  0
SEQEND
  8
ARM
  6
CONTINUOUS
  5
115
  0
POLYLINE
  8
ARM
  6
CONTINUOUS
 62
     7
  5
116
 66
     1
 10
0.0
 20
0.0
 30
0.0
 70
     1
  0
VERTEX
  8
ARM
  6
CONTINUOUS
 62
     7
  5
117
 10
-320.2986
 20
149.9601
 30
0.0
  0
VERTEX
  8
ARM
  6
CONTINUOUS
 62
     7
  5
118
 10
-320.3152
 20
149.9601
 30
0.0
  0
VERTEX
  8
ARM
  6
CONTINUOUS
 62
     7
  5
119
 10
-331.3943
 20
139.8386
 30
0.0
  0
VERTEX
  8
ARM
  6
CONTINUOUS
 62
     7
  5
11A
 10
-309.0367
 20
138.6984
 30
0.0
  0
SEQEND
  8
ARM
  6
CONTINUOUS
  5
11B
  0
POLYLINE
  8
ARM
  6
CONTINUOUS
 62
     7
  5
11C
 66
     1
 10
0.0
 20
0.0
 30
0.0
 70
     1
  0
VERTEX
  8
ARM
  6
CONTINUOUS
 62
     7
  5
11D
 10
-306.4124
 20
138.5645
 30
0.0
  0
VERTEX
  8
ARM
  6
CONTINUOUS
 62
     7
  5
11E
 10
-282.2405
 20
137.3317
 30
0.0
  0
VERTEX
  8
ARM
  6
CONTINUOUS
 62
     7
  5
11F
 10
-294.263
 20
149.9602
 30
0.0
  0
VERTEX
  8
ARM
  6
CONTINUOUS
 62
     7
  5
120
 10
-294.267
 20
149.9603
 30
0.0
  0
SEQEND
  8
ARM
  6
CONTINUOUS
  5
121
  0
POLYLINE
  8
ARM
  6
CONTINUOUS
 62
     7
  5
122
 66
     1
 10
0.0
 20
0.0
 30
0.0
 70
     1
  0
VERTEX
  8
ARM
  6
CONTINUOUS
 62
     7
  5
123
 10
-253.7972
 20
135.881
 30
0.0
  0
VERTEX
  8
ARM
  6
CONTINUOUS
 62
     7
  5
124
 10
-267.0486
 20
149.9604
 30
0.0
  0
VERTEX
  8
ARM
  6
CONTINUOUS
 62
     7
  5
125
 10
-279.4016
 20
137.1869
 30
0.0
  0
SEQEND
  8
ARM
  6
CONTINUOUS
  5
126
  0
POLYLINE
  8
ARM
  6
CONTINUOUS
 62
     7
  5
127
 66
     1
 10
0.0
 20
0.0
 30
0.0
 70
     1
  0
VERTEX
  8
ARM
  6
CONTINUOUS
 62
     7
  5
128
 10
-252.5485
 20
136.0676
 30
0.0
  0
VERTEX
  8
ARM
  6
CONTINUOUS
 62
     7
  5
129
 10
-238.0
 20
149.9606
 30
0.0
  0
VERTEX
  8
ARM
  6
CONTINUOUS
 62
     7
  5
12A
 10
-265.6753
 20
149.9604
 30
0.0
  0
VERTEX
  8
ARM
  6
CONTINUOUS
 62
     7
  5
12B
 10
-252.5485
 20
136.0134
 30
0.0
  0
SEQEND
  8
ARM
  6
CONTINUOUS
  5
12C
  0
POLYLINE
  8
ARM
  6
CONTINUOUS
 62
     7
  5
12D
 66
     1
 10
0.0
 20
0.0
 30
0.0
 70
     1
  0
VERTEX
  8
ARM
  6
CONTINUOUS
 62
     7
  5
12E
 10
-219.7756
 20
134.9243
 30
0.0
  0
VERTEX
  8
ARM
  6
CONTINUOUS
 62
     7
  5
12F
 10
-204.4601
 20
149.7108
 30
0.0
  0
VERTEX
  8
ARM
  6
CONTINUOUS
 62
     7
  5
130
 10
-234.7684
 20
149.7106
 30
0.0
  0
SEQEND
  8
ARM
  6
CONTINUOUS
  5
131
  0
POLYLINE
  8
ARM
  6
CONTINUOUS
 62
     7
  5
132
 66
     1
 10
0.0
 20
0.0
 30
0.0
 70
     1
  0
VERTEX
  8
ARM
  6
CONTINUOUS
 62
     7
  5
133
 10
-202.5486
 20
149.4609
 30
0.0
  0
VERTEX
  8
ARM
  6
CONTINUOUS
 62
     7
  5
134
 10
-202.5486
 20
149.4713
 30
0.0
  0
VERTEX
  8
ARM
  6
CONTINUOUS
 62
     7
  5
135
 10
-217.9971
 20
134.5557
 30
0.0
  0
VERTEX
  8
ARM
  6
CONTINUOUS
 62
     7
  5
136
 10
-186.5428
 20
132.9514
 30
0.0
  0
SEQEND
  8
ARM
  6
CONTINUOUS
  5
137
  0
POLYLINE
  8
ARM
  6
CONTINUOUS
 62
     7
  5
138
 66
     1
 10
0.0
 20
0.0
 30
0.0
 70
     1
  0
VERTEX
  8
ARM
  6
CONTINUOUS
 62
     7
  5
139
 10
-184.1899
 20
132.8314
 30
0.0
  0
VERTEX
  8
ARM
  6
CONTINUOUS
 62
     7
  5
13A
 10
-166.5417
 20
149.4611
 30
0.0
  0
VERTEX
  8
ARM
  6
CONTINUOUS
 62
     7
  5
13B
 10
-200.4594
 20
149.4609
 30
0.0
  0
VERTEX
  8
ARM
  6
CONTINUOUS
 62
     7
  5
13C
 10
-184.3449
 20
132.8394
 30
0.0
  0
SEQEND
  8
ARM
  6
CONTINUOUS
  5
13D
  0
POLYLINE
  8
ARM
  6
CONTINUOUS
 62
     7
  5
13E
 66
     1
 10
0.0
 20
0.0
 30
0.0
 70
     1
  0
VERTEX
  8
ARM
  6
CONTINUOUS
 62
     7
  5
13F
 10
-145.7647
 20
130.8716
 30
0.0
  0
VERTEX
  8
ARM
  6
CONTINUOUS
 62
     7
  5
140
 10
-164.3544
 20
149.4611
 30
0.0
  0
VERTEX
  8
ARM
  6
CONTINUOUS
 62
     7
  5
141
 10
-182.1149
 20
132.7256
 30
0.0
  0
SEQEND
  8
ARM
  6
CONTINUOUS
  5
142
  0
POLYLINE
  8
ARM
  6
CONTINUOUS
 62
     7
  5
143
 66
     1
 10
0.0
 20
0.0
 30
0.0
 70
     1
  0
VERTEX
  8
ARM
  6
CONTINUOUS
 62
     7
  5
144
 10
-162.2331
 20
149.4611
 30
0.0
  0
VERTEX
  8
ARM
  6
CONTINUOUS
 62
     7
  5
145
 10
-143.7014
 20
130.9297
 30
0.0
  0
VERTEX
  8
ARM
  6
CONTINUOUS
 62
     7
  5
146
 10
-125.1699
 20
149.4614
 30
0.0
  0
SEQEND
  8
ARM
  6
CONTINUOUS
  5
147
  0
POLYLINE
  8
ARM
  6
CONTINUOUS
 62
     7
  5
148
 66
     1
 10
0.0
 20
0.0
 30
0.0
 70
     1
  0
VERTEX
  8
ARM
  6
CONTINUOUS
 62
     7
  5
149
 10
-109.8376
 20
137.7505
 30
0.0
  0
VERTEX
  8
ARM
  6
CONTINUOUS
 62
     7
  5
14A
 10
-119.3793
 20
129.5259
 30
0.0
  0
VERTEX
  8
ARM
  6
CONTINUOUS
 62
     7
  5
14B
 10
-100.658
 20
128.5711
 30
0.0
  0
SEQEND
  8
ARM
  6
CONTINUOUS
  5
14C
  0
POLYLINE
  8
ARM
  6
CONTINUOUS
 62
     7
  5
14D
 66
     1
 10
0.0
 20
0.0
 30
0.0
 70
     1
  0
VERTEX
  8
ARM
  6
CONTINUOUS
 62
     7
  5
14E
 10
-98.5485
 20
128.5829
 30
0.0
  0
VERTEX
  8
ARM
  6
CONTINUOUS
 62
     7
  5
14F
 10
-98.5486
 20
147.4812
 30
0.0
  0
VERTEX
  8
ARM
  6
CONTINUOUS
 62
     7
  5
150
 10
-108.6983
 20
138.7326
 30
0.0
  0
SEQEND
  8
ARM
  6
CONTINUOUS
  5
151
  0
POLYLINE
  8
ARM
  6
CONTINUOUS
 62
     7
  5
152
 66
     1
 10
0.0
 20
0.0
 30
0.0
 70
     1
  0
VERTEX
  8
ARM
  6
CONTINUOUS
 62
     7
  5
153
 10
-109.7619
 20
139.7961
 30
0.0
  0
VERTEX
  8
ARM
  6
CONTINUOUS
 62
     7
  5
154
 10
-98.5486
 20
149.4615
 30
0.0
  0
VERTEX
  8
ARM
  6
CONTINUOUS
 62
     7
  5
155
 10
-119.4272
 20
149.4614
 30
0.0
  0
SEQEND
  8
ARM
  6
CONTINUOUS
  5
156
  0
POLYLINE
  8
ARM
  6
CONTINUOUS
 62
     7
  5
157
 66
     1
 10
0.0
 20
0.0
 30
0.0
 70
     1
  0
VERTEX
  8
ARM
  6
CONTINUOUS
 62
     7
  5
158
 10
-121.5486
 20
149.4614
 30
0.0
  0
VERTEX
  8
ARM
  6
CONTINUOUS
 62
     7
  5
159
 10
-121.5485
 20
129.6365
 30
0.0
  0
VERTEX
  8
ARM
  6
CONTINUOUS
 62
     7
  5
15A
 10
-110.9012
 20
138.8141
 30
0.0
  0
SEQEND
  8
ARM
  6
CONTINUOUS
  5
15B
  0
POLYLINE
  8
ARM
  6
CONTINUOUS
 62
     7
  5
15C
 66
     1
 10
0.0
 20
0.0
 30
0.0
 70
     5
 75
     5
  0
VERTEX
  8
ARM
  6
CONTINUOUS
 62
     7
  5
15D
 10
-98.9296
 20
150.9615
 30
0.0
  0
VERTEX
  8
ARM
  6
CONTINUOUS
 62
     7
  5
15E
 10
-93.9296
 20
150.9616
 30
0.0
  0
VERTEX
  8
ARM
  6
CONTINUOUS
 62
     7
  5
15F
 10
-93.9295
 20
126.9616
 30
0.0
  0
VERTEX
  8
ARM
  6
CONTINUOUS
 62
     7
  5
160
 10
-98.9295
 20
126.9615
 30
0.0
  0
SEQEND
  8
ARM
  6
CONTINUOUS
  5
161
  0
CIRCLE
  8
ARM
  6
CONTINUOUS
 62
     7
  5
162
 10
-95.6796
 20
147.6905
 30
0.0
 40
0.5
  0
CIRCLE
  8
ARM
  6
CONTINUOUS
 62
     7
  5
163
 10
-95.6795
 20
130.2326
 30
0.0
 40
0.5
  0
POLYLINE
  8
ARM
  6
CONTINUOUS
 62
     7
  5
164
 66
     1
 10
0.0
 20
0.0
 30
0.0
 70
     1
  0
VERTEX
  8
ARM
  6
CONTINUOUS
 62
     7
  5
165
 10
46.9514
 20
150.9625
 30
0.0
  0
VERTEX
  8
ARM
  6
CONTINUOUS
 62
     7
  5
166
 10
46.9514
 20
149.4625
 30
0.0
  0
VERTEX
  8
ARM
  6
CONTINUOUS
 62
     7
  5
167
 10
46.9515
 20
138.9625
 30
0.0
  0
VERTEX
  8
ARM
  6
CONTINUOUS
 62
     7
  5
168
 10
45.4515
 20
138.9625
 30
0.0
  0
VERTEX
  8
ARM
  6
CONTINUOUS
 62
     7
  5
169
 10
-47.5484
 20
126.9619
 30
0.0
  0
VERTEX
  8
ARM
  6
CONTINUOUS
 62
     7
  5
16A
 10
-49.0484
 20
126.9618
 30
0.0
  0
VERTEX
  8
ARM
  6
CONTINUOUS
 62
     7
  5
16B
 10
-49.0486
 20
149.4619
 30
0.0
  0
VERTEX
  8
ARM
  6
CONTINUOUS
 62
     7
  5
16C
 10
-49.0486
 20
150.9619
 30
0.0
  0
VERTEX
  8
ARM
  6
CONTINUOUS
 62
     7
  5
16D
 10
-47.5486
 20
150.9619
 30
0.0
  0
VERTEX
  8
ARM
  6
CONTINUOUS
 62
     7
  5
16E
 10
45.4514
 20
150.9625
 30
0.0
  0
SEQEND
  8
ARM
  6
CONTINUOUS
  5
16F
  0
POLYLINE
  8
ARM
  6
CONTINUOUS
 62
     7
  5
170
 66
     1
 10
0.0
 20
0.0
 30
0.0
 70
     1
  0
VERTEX
  8
ARM
  6
CONTINUOUS
 62
     7
  5
171
 10
-20.5422
 20
149.4621
 30
0.0
  0
VERTEX
  8
ARM
  6
CONTINUOUS
 62
     7
  5
172
 10
-26.2927
 20
131.2171
 30
0.0
  0
VERTEX
  8
ARM
  6
CONTINUOUS
 62
     7
  5
173
 10
-6.1297
 20
133.8189
 30
0.0
  0
SEQEND
  8
ARM
  6
CONTINUOUS
  5
174
  0
POLYLINE
  8
ARM
  6
CONTINUOUS
 62
     7
  5
175
 66
     1
 10
0.0
 20
0.0
 30
0.0
 70
     1
  0
VERTEX
  8
ARM
  6
CONTINUOUS
 62
     7
  5
176
 10
17.3889
 20
136.8538
 30
0.0
  0
VERTEX
  8
ARM
  6
CONTINUOUS
 62
     7
  5
177
 10
5.9579
 20
149.4622
 30
0.0
  0
VERTEX
  8
ARM
  6
CONTINUOUS
 62
     7
  5
178
 10
-2.2727
 20
134.3167
 30
0.0
  0
SEQEND
  8
ARM
  6
CONTINUOUS
  5
179
  0
POLYLINE
  8
ARM
  6
CONTINUOUS
 62
     7
  5
17A
 66
     1
 10
0.0
 20
0.0
 30
0.0
 70
     1
  0
VERTEX
  8
ARM
  6
CONTINUOUS
 62
     7
  5
17B
 10
21.6371
 20
137.4019
 30
0.0
  0
VERTEX
  8
ARM
  6
CONTINUOUS
 62
     7
  5
17C
 10
43.3493
 20
140.2037
 30
0.0
  0
VERTEX
  8
ARM
  6
CONTINUOUS
 62
     7
  5
17D
 10
33.6974
 20
149.4624
 30
0.0
  0
SEQEND
  8
ARM
  6
CONTINUOUS
  5
17E
  0
POLYLINE
  8
ARM
  6
CONTINUOUS
 62
     7
  5
17F
 66
     1
 10
0.0
 20
0.0
 30
0.0
 70
     1
  0
VERTEX
  8
ARM
  6
CONTINUOUS
 62
     7
  5
180
 10
45.4514
 20
149.4625
 30
0.0
  0
VERTEX
  8
ARM
  6
CONTINUOUS
 62
     7
  5
181
 10
35.8642
 20
149.4624
 30
0.0
  0
VERTEX
  8
ARM
  6
CONTINUOUS
 62
     7
  5
182
 10
45.2592
 20
140.4501
 30
0.0
  0
VERTEX
  8
ARM
  6
CONTINUOUS
 62
     7
  5
183
 10
45.4515
 20
140.4749
 30
0.0
  0
SEQEND
  8
ARM
  6
CONTINUOUS
  5
184
  0
POLYLINE
  8
ARM
  6
CONTINUOUS
 62
     7
  5
185
 66
     1
 10
0.0
 20
0.0
 30
0.0
 70
     1
  0
VERTEX
  8
ARM
  6
CONTINUOUS
 62
     7
  5
186
 10
7.9826
 20
149.4622
 30
0.0
  0
VERTEX
  8
ARM
  6
CONTINUOUS
 62
     7
  5
187
 10
19.2015
 20
137.0877
 30
0.0
  0
VERTEX
  8
ARM
  6
CONTINUOUS
 62
     7
  5
188
 10
31.5761
 20
149.4624
 30
0.0
  0
SEQEND
  8
ARM
  6
CONTINUOUS
  5
189
  0
POLYLINE
  8
ARM
  6
CONTINUOUS
 62
     7
  5
18A
 66
     1
 10
0.0
 20
0.0
 30
0.0
 70
     1
  0
VERTEX
  8
ARM
  6
CONTINUOUS
 62
     7
  5
18B
 10
-4.1087
 20
134.0797
 30
0.0
  0
VERTEX
  8
ARM
  6
CONTINUOUS
 62
     7
  5
18C
 10
4.2507
 20
149.4622
 30
0.0
  0
VERTEX
  8
ARM
  6
CONTINUOUS
 62
     7
  5
18D
 10
-18.5026
 20
149.4621
 30
0.0
  0
VERTEX
  8
ARM
  6
CONTINUOUS
 62
     7
  5
18E
 10
-4.3068
 20
134.0542
 30
0.0
  0
SEQEND
  8
ARM
  6
CONTINUOUS
  5
18F
  0
POLYLINE
  8
ARM
  6
CONTINUOUS
 62
     7
  5
190
 66
     1
 10
0.0
 20
0.0
 30
0.0
 70
     1
  0
VERTEX
  8
ARM
  6
CONTINUOUS
 62
     7
  5
191
 10
-46.3853
 20
149.4619
 30
0.0
  0
VERTEX
  8
ARM
  6
CONTINUOUS
 62
     7
  5
192
 10
-28.1135
 20
130.9822
 30
0.0
  0
VERTEX
  8
ARM
  6
CONTINUOUS
 62
     7
  5
193
 10
-27.9322
 20
131.0056
 30
0.0
  0
VERTEX
  8
ARM
  6
CONTINUOUS
 62
     7
  5
194
 10
-22.1149
 20
149.4621
 30
0.0
  0
SEQEND
  8
ARM
  6
CONTINUOUS
  5
195
  0
POLYLINE
  8
ARM
  6
CONTINUOUS
 62
     7
  5
196
 66
     1
 10
0.0
 20
0.0
 30
0.0
 70
     1
  0
VERTEX
  8
ARM
  6
CONTINUOUS
 62
     7
  5
197
 10
-47.5485
 20
128.4743
 30
0.0
  0
VERTEX
  8
ARM
  6
CONTINUOUS
 62
     7
  5
198
 10
-29.9843
 20
130.7408
 30
0.0
  0
VERTEX
  8
ARM
  6
CONTINUOUS
 62
     7
  5
199
 10
-47.5486
 20
148.5049
 30
0.0
  0
SEQEND
  8
ARM
  6
CONTINUOUS
  5
19A
  0
POLYLINE
  8
ARM
  6
CONTINUOUS
 62
     7
  5
19B
 66
     1
 10
0.0
 20
0.0
 30
0.0
 70
     5
 75
     5
  0
VERTEX
  8
ARM
  6
CONTINUOUS
 62
     7
  5
19C
 10
46.9514
 20
150.9625
 30
0.0
  0
VERTEX
  8
ARM
  6
CONTINUOUS
 62
     7
  5
19D
 10
47.9514
 20
150.9625
 30
0.0
  0
VERTEX
  8
ARM
  6
CONTINUOUS
 62
     7
  5
19E
 10
47.9515
 20
138.9625
 30
0.0
  0
VERTEX
  8
ARM
  6
CONTINUOUS
 62
     7
  5
19F
 10
46.9515
 20
138.9625
 30
0.0
  0
SEQEND
  8
ARM
  6
CONTINUOUS
  5
1A0
  0
POLYLINE
  8
ARM
  6
CONTINUOUS
 62
     7
  5
1A1
 66
     1
 10
0.0
 20
0.0
 30
0.0
 70
     5
 75
     5
  0
VERTEX
  8
ARM
  6
CONTINUOUS
 62
     7
  5
1A2
 10
-52.0486
 20
150.9618
 30
0.0
  0
VERTEX
  8
ARM
  6
CONTINUOUS
 62
     7
  5
1A3
 10
-47.0486
 20
150.9619
 30
0.0
  0
VERTEX
  8
ARM
  6
CONTINUOUS
 62
     7
  5
1A4
 10
-47.0484
 20
126.9619
 30
0.0
  0
VERTEX
  8
ARM
  6
CONTINUOUS
 62
     7
  5
1A5
 10
-52.0484
 20
126.9618
 30
0.0
  0
SEQEND
  8
ARM
  6
CONTINUOUS
  5
1A6
  0
CIRCLE
  8
ARM
  6
CONTINUOUS
 62
     7
  5
1A7
 10
-50.2986
 20
147.6908
 30
0.0
 40
0.5
  0
CIRCLE
  8
ARM
  6
CONTINUOUS
 62
     7
  5
1A8
 10
-50.2985
 20
130.2329
 30
0.0
 40
0.5
  0
POLYLINE
  8
ARM
  6
CONTINUOUS
 62
     7
  5
1A9
 66
     1
 10
0.0
 20
0.0
 30
0.0
 70
     5
 75
     5
  0
VERTEX
  8
ARM
  6
CONTINUOUS
 62
     7
  5
1AA
 10
47.9514
 20
145.4625
 30
0.0
  0
VERTEX
  8
ARM
  6
CONTINUOUS
 62
     7
  5
1AB
 10
58.4514
 20
145.4626
 30
0.0
  0
VERTEX
  8
ARM
  6
CONTINUOUS
 62
     7
  5
1AC
 10
58.4514
 20
144.4626
 30
0.0
  0
VERTEX
  8
ARM
  6
CONTINUOUS
 62
     7
  5
1AD
 10
47.9514
 20
144.4625
 30
0.0
  0
SEQEND
  8
ARM
  6
CONTINUOUS
  5
1AE
  0
POLYLINE
  8
ARM
  6
CONTINUOUS
 62
     7
  5
1AF
 66
     1
 10
0.0
 20
0.0
 30
0.0
 70
     5
 75
     5
  0
VERTEX
  8
ARM
  6
CONTINUOUS
 62
     7
  5
1B0
 10
47.9514
 20
150.9625
 30
0.0
  0
VERTEX
  8
ARM
  6
CONTINUOUS
 62
     7
  5
1B1
 10
59.9514
 20
150.9626
 30
0.0
  0
VERTEX
  8
ARM
  6
CONTINUOUS
 62
     7
  5
1B2
 10
59.9515
 20
138.9626
 30
0.0
  0
VERTEX
  8
ARM
  6
CONTINUOUS
 62
     7
  5
1B3
 10
47.9515
 20
138.9625
 30
0.0
  0
SEQEND
  8
ARM
  6
CONTINUOUS
  5
1B4
  0
POLYLINE
  8
ARM
  6
CONTINUOUS
 62
     7
  5
1B5
 66
     1
 10
0.0
 20
0.0
 30
0.0
 70
     5
 75
     5
  0
VERTEX
  8
ARM
  6
CONTINUOUS
 62
     7
  5
1B6
 10
59.9515
 20
138.9626
 30
0.0
  0
VERTEX
  8
ARM
  6
CONTINUOUS
 62
     7
  5
1B7
 10
71.9514
 20
150.9627
 30
0.0
  0
VERTEX
  8
ARM
  6
CONTINUOUS
 62
     7
  5
1B8
 10
71.9513
 20
162.9627
 30
0.0
  0
VERTEX
  8
ARM
  6
CONTINUOUS
 62
     7
  5
1B9
 10
59.9514
 20
150.9626
 30
0.0
  0
SEQEND
  8
ARM
  6
CONTINUOUS
  5
1BA
  0
POLYLINE
  8
ARM
  6
CONTINUOUS
 62
     7
  5
1BB
 66
     1
 10
0.0
 20
0.0
 30
0.0
 70
     5
 75
     5
  0
VERTEX
  8
ARM
  6
CONTINUOUS
 62
     7
  5
1BC
 10
-334.4236
 20
151.46
 30
0.0
  0
VERTEX
  8
ARM
  6
CONTINUOUS
 62
     7
  5
1BD
 10
-333.7986
 20
151.46
 30
0.0
  0
VERTEX
  8
ARM
  6
CONTINUOUS
 62
     7
  5
1BE
 10
-333.7985
 20
138.96
 30
0.0
  0
VERTEX
  8
ARM
  6
CONTINUOUS
 62
     7
  5
1BF
 10
-334.4235
 20
138.96
 30
0.0
  0
SEQEND
  8
ARM
  6
CONTINUOUS
  5
1C0
  0
POLYLINE
  8
ARM
  6
CONTINUOUS
 62
     7
  5
1C1
 66
     1
 10
0.0
 20
0.0
 30
0.0
 70
     5
 75
     5
  0
VERTEX
  8
ARM
  6
CONTINUOUS
 62
     7
  5
1C2
 10
-334.4236
 20
144.96
 30
0.0
  0
VERTEX
  8
ARM
  6
CONTINUOUS
 62
     7
  5
1C3
 10
-336.4236
 20
144.96
 30
0.0
  0
VERTEX
  8
ARM
  6
CONTINUOUS
 62
     7
  5
1C4
 10
-338.4235
 20
140.9599
 30
0.0
  0
VERTEX
  8
ARM
  6
CONTINUOUS
 62
     7
  5
1C5
 10
-338.4235
 20
138.9599
 30
0.0
  0
VERTEX
  8
ARM
  6
CONTINUOUS
 62
     7
  5
1C6
 10
-334.4235
 20
138.96
 30
0.0
  0
SEQEND
  8
ARM
  6
CONTINUOUS
  5
1C7
  0
CIRCLE
  8
ARM
  6
CONTINUOUS
 62
     7
  5
1C8
 10
-337.4235
 20
139.9599
 30
0.0
 40
0.50005
  0
POLYLINE
  8
ARM
  6
CONTINUOUS
 62
     7
  5
1C9
 66
     1
 10
0.0
 20
0.0
 30
0.0
 70
     5
 75
     5
  0
VERTEX
  8
ARM
  6
CONTINUOUS
 62
     7
  5
1CA
 10
-351.6734
 20
125.4723
 30
0.0
  0
VERTEX
  8
ARM
  6
CONTINUOUS
 62
     7
  5
1CB
 10
-342.6736
 20
125.4721
 30
0.0
  0
VERTEX
  8
ARM
  6
CONTINUOUS
 62
     7
  5
1CC
 10
-342.6738
 20
115.4722
 30
0.0
  0
VERTEX
  8
ARM
  6
CONTINUOUS
 62
     7
  5
1CD
 10
-351.6738
 20
115.4724
 30
0.0
  0
SEQEND
  8
ARM
  6
CONTINUOUS
  5
1CE
  0
POLYLINE
  8
ARM
  6
CONTINUOUS
 62
     7
  5
1CF
 66
     1
 10
0.0
 20
0.0
 30
0.0
 70
     5
 75
     5
  0
VERTEX
  8
ARM
  6
CONTINUOUS
 62
     7
  5
1D0
 10
-348.6109
 20
132.2846
 30
0.0
  0
VERTEX
  8
ARM
  6
CONTINUOUS
 62
     7
  5
1D1
 10
-346.486
 20
132.2847
 30
0.0
  0
VERTEX
  8
ARM
  6
CONTINUOUS
 62
     7
  5
1D2
 10
-346.4861
 20
125.4724
 30
0.0
  0
VERTEX
  8
ARM
  6
CONTINUOUS
 62
     7
  5
1D3
 10
-348.6111
 20
125.4722
 30
0.0
  0
SEQEND
  8
ARM
  6
CONTINUOUS
  5
1D4
  0
CIRCLE
  8
ARM
  6
CONTINUOUS
 62
     7
  5
1D5
 10
-347.1737
 20
121.4723
 30
0.0
 40
2.125
  0
POLYLINE
  8
ARM
  6
CONTINUOUS
 62
     7
  5
1D6
 66
     1
 10
0.0
 20
0.0
 30
0.0
 70
     5
 75
     5
  0
VERTEX
  8
ARM
  6
CONTINUOUS
 62
     7
  5
1D7
 10
-344.9608
 20
137.8351
 30
0.0
  0
VERTEX
  8
ARM
  6
CONTINUOUS
 62
     7
  5
1D8
 10
-344.7108
 20
137.5849
 30
0.0
  0
VERTEX
  8
ARM
  6
CONTINUOUS
 62
     7
  5
1D9
 10
-344.7109
 20
135.8348
 30
0.0
  0
VERTEX
  8
ARM
  6
CONTINUOUS
 62
     7
  5
1DA
 10
-344.9609
 20
135.5849
 30
0.0
  0
VERTEX
  8
ARM
  6
CONTINUOUS
 62
     7
  5
1DB
 10
-351.4608
 20
135.5845
 30
0.0
  0
VERTEX
  8
ARM
  6
CONTINUOUS
 62
     7
  5
1DC
 10
-357.0857
 20
129.9595
 30
0.0
  0
VERTEX
  8
ARM
  6
CONTINUOUS
 62
     7
  5
1DD
 10
-357.0854
 20
117.3344
 30
0.0
  0
VERTEX
  8
ARM
  6
CONTINUOUS
 62
     7
  5
1DE
 10
-357.3351
 20
117.0846
 30
0.0
  0
VERTEX
  8
ARM
  6
CONTINUOUS
 62
     7
  5
1DF
 10
-359.0854
 20
117.0843
 30
0.0
  0
VERTEX
  8
ARM
  6
CONTINUOUS
 62
     7
  5
1E0
 10
-359.3353
 20
117.3344
 30
0.0
  0
VERTEX
  8
ARM
  6
CONTINUOUS
 62
     7
  5
1E1
 10
-359.3357
 20
131.4597
 30
0.0
  0
VERTEX
  8
ARM
  6
CONTINUOUS
 62
     7
  5
1E2
 10
-352.961
 20
137.8346
 30
0.0
  0
SEQEND
  8
ARM
  6
CONTINUOUS
  5
1E3
  0
POLYLINE
  8
ARM
  6
CONTINUOUS
 62
     7
  5
1E4
 66
     1
 10
0.0
 20
0.0
 30
0.0
 70
     5
 75
     5
  0
VERTEX
  8
ARM
  6
CONTINUOUS
 62
     7
  5
1E5
 10
-347.3354
 20
115.3972
 30
0.0
  0
VERTEX
  8
ARM
  6
CONTINUOUS
 62
     7
  5
1E6
 10
-347.0853
 20
115.147
 30
0.0
  0
VERTEX
  8
ARM
  6
CONTINUOUS
 62
     7
  5
1E7
 10
-347.0853
 20
114.1472
 30
0.0
  0
VERTEX
  8
ARM
  6
CONTINUOUS
 62
     7
  5
1E8
 10
-347.3352
 20
113.8973
 30
0.0
  0
VERTEX
  8
ARM
  6
CONTINUOUS
 62
     7
  5
1E9
 10
-355.0852
 20
113.8972
 30
0.0
  0
VERTEX
  8
ARM
  6
CONTINUOUS
 62
     7
  5
1EA
 10
-357.0851
 20
115.8969
 30
0.0
  0
VERTEX
  8
ARM
  6
CONTINUOUS
 62
     7
  5
1EB
 10
-357.0856
 20
124.3968
 30
0.0
  0
VERTEX
  8
ARM
  6
CONTINUOUS
 62
     7
  5
1EC
 10
-356.8355
 20
124.6471
 30
0.0
  0
VERTEX
  8
ARM
  6
CONTINUOUS
 62
     7
  5
1ED
 10
-355.8356
 20
124.6469
 30
0.0
  0
VERTEX
  8
ARM
  6
CONTINUOUS
 62
     7
  5
1EE
 10
-355.5856
 20
124.397
 30
0.0
  0
VERTEX
  8
ARM
  6
CONTINUOUS
 62
     7
  5
1EF
 10
-355.5853
 20
117.3971
 30
0.0
  0
VERTEX
  8
ARM
  6
CONTINUOUS
 62
     7
  5
1F0
 10
-353.5853
 20
115.3971
 30
0.0
  0
SEQEND
  8
ARM
  6
CONTINUOUS
  5
1F1
  0
CIRCLE
  8
ARM
  6
CONTINUOUS
 62
     7
  5
1F2
 10
-343.1737
 20
136.0723
 30
0.0
 40
1.5
  0
POLYLINE
  8
ARM
  6
CONTINUOUS
 62
     7
  5
1F3
 66
     1
 10
0.0
 20
0.0
 30
0.0
 70
     5
 75
     5
  0
VERTEX
  8
ARM
  6
CONTINUOUS
 62
     7
  5
1F4
 10
-337.9369
 20
138.4599
 30
0.0
  0
VERTEX
  8
ARM
  6
CONTINUOUS
 62
     7
  5
1F5
 10
-342.918
 20
138.46
 30
0.0
  0
VERTEX
  8
ARM
  6
CONTINUOUS
 62
     7
  5
1F6
 10
-338.09693
 20
148.29019
 30
0.0
  0
VERTEX
  8
ARM
  6
CONTINUOUS
 62
     7
  5
1F7
 10
-337.94168
 20
148.5022
 30
0.0
  0
VERTEX
  8
ARM
  6
CONTINUOUS
 62
     7
  5
1F8
 10
-337.7227
 20
148.6477
 30
0.0
  0
VERTEX
  8
ARM
  6
CONTINUOUS
 62
     7
  5
1F9
 10
-337.46696
 20
148.70868
 30
0.0
  0
VERTEX
  8
ARM
  6
CONTINUOUS
 62
     7
  5
1FA
 10
-337.20588
 20
148.67766
 30
0.0
  0
VERTEX
  8
ARM
  6
CONTINUOUS
 62
     7
  5
1FB
 10
-336.97155
 20
148.55844
 30
0.0
  0
VERTEX
  8
ARM
  6
CONTINUOUS
 62
     7
  5
1FC
 10
-336.79277
 20
148.36567
 30
0.0
  0
VERTEX
  8
ARM
  6
CONTINUOUS
 62
     7
  5
1FD
 10
-336.6915
 20
148.12304
 30
0.0
  0
VERTEX
  8
ARM
  6
CONTINUOUS
 62
     7
  5
1FE
 10
-336.68016
 20
147.86056
 30
0.0
  0
VERTEX
  8
ARM
  6
CONTINUOUS
 62
     7
  5
1FF
 10
-337.9369
 20
138.4599
 30
0.0
  0
SEQEND
  8
ARM
  6
CONTINUOUS
  5
200
  0
POLYLINE
  8
ARM
  6
CONTINUOUS
 62
     7
  5
201
 66
     1
 10
0.0
 20
0.0
 30
0.0
 70
     5
 75
     5
  0
VERTEX
  8
ARM
  6
CONTINUOUS
 62
     7
  5
202
 10
-335.7985
 20
141.46
 30
0.0
  0
VERTEX
  8
ARM
  6
CONTINUOUS
 62
     7
  5
203
 10
-345.5485
 20
141.4599
 30
0.0
  0
VERTEX
  8
ARM
  6
CONTINUOUS
 62
     7
  5
204
 10
-349.0485
 20
139.7099
 30
0.0
  0
VERTEX
  8
ARM
  6
CONTINUOUS
 62
     7
  5
205
 10
-349.0485
 20
138.46
 30
0.0
  0
VERTEX
  8
ARM
  6
CONTINUOUS
 62
     7
  5
206
 10
-335.7985
 20
138.46
 30
0.0
  0
SEQEND
  8
ARM
  6
CONTINUOUS
  5
207
  0
POLYLINE
  8
ARM
  6
CONTINUOUS
 62
     7
  5
208
 66
     1
 10
0.0
 20
0.0
 30
0.0
 70
     5
 75
     5
  0
VERTEX
  8
ARM
  6
CONTINUOUS
 62
     7
  5
209
 10
-351.2985
 20
138.46
 30
0.0
  0
VERTEX
  8
ARM
  6
CONTINUOUS
 62
     7
  5
20A
 10
-337.7985
 20
138.46
 30
0.0
  0
VERTEX
  8
ARM
  6
CONTINUOUS
 62
     7
  5
20B
 10
-337.7985
 20
137.8349
 30
0.0
  0
VERTEX
  8
ARM
  6
CONTINUOUS
 62
     7
  5
20C
 10
-351.2985
 20
137.8349
 30
0.0
  0
SEQEND
  8
ARM
  6
CONTINUOUS
  5
20D
  0
CIRCLE
  8
ARM
  6
CONTINUOUS
 62
     7
  5
20E
 10
-337.4235
 20
147.96
 30
0.0
 40
0.50008
  0
CIRCLE
  8
ARM
  6
CONTINUOUS
 62
     7
  5
20F
 10
-337.4235
 20
139.9599
 30
0.0
 40
0.5
  0
POLYLINE
  8
ARM
  6
CONTINUOUS
 62
     9
  5
210
 66
     1
 10
0.0
 20
0.0
 30
0.0
 70
     5
 75
     5
  0
VERTEX
  8
ARM
  6
CONTINUOUS
 62
     9
  5
211
 10
380.76851
 20
-6.84013
 30
0.0
  0
VERTEX
  8
ARM
  6
CONTINUOUS
 62
     9
  5
212
 10
371.76871
 20
-6.84053
 30
0.0
  0
VERTEX
  8
ARM
  6
CONTINUOUS
 62
     9
  5
213
 10
371.76911
 20
-16.84043
 30
0.0
  0
VERTEX
  8
ARM
  6
CONTINUOUS
 62
     9
  5
214
 10
380.76911
 20
-16.84003
 30
0.0
  0
SEQEND
  8
ARM
  6
CONTINUOUS
  5
215
  0
POLYLINE
  8
ARM
  6
CONTINUOUS
 62
     9
  5
216
 66
     1
 10
0.0
 20
0.0
 30
0.0
 70
     5
 75
     5
  0
VERTEX
  8
ARM
  6
CONTINUOUS
 62
     9
  5
217
 10
377.70581
 20
-0.02793
 30
0.0
  0
VERTEX
  8
ARM
  6
CONTINUOUS
 62
     9
  5
218
 10
375.58091
 20
-0.02783
 30
0.0
  0
VERTEX
  8
ARM
  6
CONTINUOUS
 62
     9
  5
219
 10
375.58121
 20
-6.84013
 30
0.0
  0
VERTEX
  8
ARM
  6
CONTINUOUS
 62
     9
  5
21A
 10
377.70621
 20
-6.84033
 30
0.0
  0
SEQEND
  8
ARM
  6
CONTINUOUS
  5
21B
  0
CIRCLE
  8
ARM
  6
CONTINUOUS
 62
     9
  5
21C
 10
376.26891
 20
-10.84023
 30
0.0
 40
2.125
  0
POLYLINE
  8
ARM
  6
CONTINUOUS
 62
     9
  5
21D
 66
     1
 10
0.0
 20
0.0
 30
0.0
 70
     5
 75
     5
  0
VERTEX
  8
ARM
  6
CONTINUOUS
 62
     9
  5
21E
 10
374.05561
 20
5.52247
 30
0.0
  0
VERTEX
  8
ARM
  6
CONTINUOUS
 62
     9
  5
21F
 10
373.80561
 20
5.27227
 30
0.0
  0
VERTEX
  8
ARM
  6
CONTINUOUS
 62
     9
  5
220
 10
373.80581
 20
3.52217
 30
0.0
  0
VERTEX
  8
ARM
  6
CONTINUOUS
 62
     9
  5
221
 10
374.05581
 20
3.27227
 30
0.0
  0
VERTEX
  8
ARM
  6
CONTINUOUS
 62
     9
  5
222
 10
380.55571
 20
3.27207
 30
0.0
  0
VERTEX
  8
ARM
  6
CONTINUOUS
 62
     9
  5
223
 10
386.18071
 20
-2.35283
 30
0.0
  0
VERTEX
  8
ARM
  6
CONTINUOUS
 62
     9
  5
224
 10
386.18071
 20
-14.97793
 30
0.0
  0
VERTEX
  8
ARM
  6
CONTINUOUS
 62
     9
  5
225
 10
386.43041
 20
-15.22773
 30
0.0
  0
VERTEX
  8
ARM
  6
CONTINUOUS
 62
     9
  5
226
 10
388.18071
 20
-15.22803
 30
0.0
  0
VERTEX
  8
ARM
  6
CONTINUOUS
 62
     9
  5
227
 10
388.43061
 20
-14.97783
 30
0.0
  0
VERTEX
  8
ARM
  6
CONTINUOUS
 62
     9
  5
228
 10
388.43071
 20
-0.85263
 30
0.0
  0
VERTEX
  8
ARM
  6
CONTINUOUS
 62
     9
  5
229
 10
382.05581
 20
5.52217
 30
0.0
  0
SEQEND
  8
ARM
  6
CONTINUOUS
  5
22A
  0
POLYLINE
  8
ARM
  6
CONTINUOUS
 62
     9
  5
22B
 66
     1
 10
0.0
 20
0.0
 30
0.0
 70
     5
 75
     5
  0
VERTEX
  8
ARM
  6
CONTINUOUS
 62
     9
  5
22C
 10
376.43071
 20
-16.91533
 30
0.0
  0
VERTEX
  8
ARM
  6
CONTINUOUS
 62
     9
  5
22D
 10
376.18061
 20
-17.16553
 30
0.0
  0
VERTEX
  8
ARM
  6
CONTINUOUS
 62
     9
  5
22E
 10
376.18071
 20
-18.16533
 30
0.0
  0
VERTEX
  8
ARM
  6
CONTINUOUS
 62
     9
  5
22F
 10
376.43061
 20
-18.41523
 30
0.0
  0
VERTEX
  8
ARM
  6
CONTINUOUS
 62
     9
  5
230
 10
384.18061
 20
-18.41513
 30
0.0
  0
VERTEX
  8
ARM
  6
CONTINUOUS
 62
     9
  5
231
 10
386.18041
 20
-16.41543
 30
0.0
  0
VERTEX
  8
ARM
  6
CONTINUOUS
 62
     9
  5
232
 10
386.18071
 20
-7.91553
 30
0.0
  0
VERTEX
  8
ARM
  6
CONTINUOUS
 62
     9
  5
233
 10
385.93061
 20
-7.66523
 30
0.0
  0
VERTEX
  8
ARM
  6
CONTINUOUS
 62
     9
  5
234
 10
384.93071
 20
-7.66543
 30
0.0
  0
VERTEX
  8
ARM
  6
CONTINUOUS
 62
     9
  5
235
 10
384.68071
 20
-7.91533
 30
0.0
  0
VERTEX
  8
ARM
  6
CONTINUOUS
 62
     9
  5
236
 10
384.68061
 20
-14.91523
 30
0.0
  0
VERTEX
  8
ARM
  6
CONTINUOUS
 62
     9
  5
237
 10
382.68061
 20
-16.91533
 30
0.0
  0
SEQEND
  8
ARM
  6
CONTINUOUS
  5
238
  0
CIRCLE
  8
ARM
  6
CONTINUOUS
 62
     9
  5
239
 10
372.26861
 20
3.75967
 30
0.0
 40
1.5
  0
POLYLINE
  8
ARM
  6
CONTINUOUS
 62
     9
  5
23A
 66
     1
 10
0.0
 20
0.0
 30
0.0
 70
     5
 75
     5
  0
VERTEX
  8
ARM
  6
CONTINUOUS
 62
     9
  5
23B
 10
367.03161
 20
6.14717
 30
0.0
  0
VERTEX
  8
ARM
  6
CONTINUOUS
 62
     9
  5
23C
 10
372.01281
 20
6.14727
 30
0.0
  0
VERTEX
  8
ARM
  6
CONTINUOUS
 62
     9
  5
23D
 10
367.19142
 20
15.97747
 30
0.0
  0
VERTEX
  8
ARM
  6
CONTINUOUS
 62
     9
  5
23E
 10
367.03615
 20
16.18948
 30
0.0
  0
VERTEX
  8
ARM
  6
CONTINUOUS
 62
     9
  5
23F
 10
366.81718
 20
16.33497
 30
0.0
  0
VERTEX
  8
ARM
  6
CONTINUOUS
 62
     9
  5
240
 10
366.56143
 20
16.39594
 30
0.0
  0
VERTEX
  8
ARM
  6
CONTINUOUS
 62
     9
  5
241
 10
366.30036
 20
16.36491
 30
0.0
  0
VERTEX
  8
ARM
  6
CONTINUOUS
 62
     9
  5
242
 10
366.06603
 20
16.24568
 30
0.0
  0
VERTEX
  8
ARM
  6
CONTINUOUS
 62
     9
  5
243
 10
365.88726
 20
16.05291
 30
0.0
  0
VERTEX
  8
ARM
  6
CONTINUOUS
 62
     9
  5
244
 10
365.78599
 20
15.81028
 30
0.0
  0
VERTEX
  8
ARM
  6
CONTINUOUS
 62
     9
  5
245
 10
365.77467
 20
15.5478
 30
0.0
  0
VERTEX
  8
ARM
  6
CONTINUOUS
 62
     9
  5
246
 10
367.03161
 20
6.14717
 30
0.0
  0
SEQEND
  8
ARM
  6
CONTINUOUS
  5
247
  0
POLYLINE
  8
ARM
  6
CONTINUOUS
 62
     9
  5
248
 66
     1
 10
0.0
 20
0.0
 30
0.0
 70
     5
 75
     5
  0
VERTEX
  8
ARM
  6
CONTINUOUS
 62
     9
  5
249
 10
364.89321
 20
9.14717
 30
0.0
  0
VERTEX
  8
ARM
  6
CONTINUOUS
 62
     9
  5
24A
 10
374.64321
 20
9.14737
 30
0.0
  0
VERTEX
  8
ARM
  6
CONTINUOUS
 62
     9
  5
24B
 10
378.14331
 20
7.39747
 30
0.0
  0
VERTEX
  8
ARM
  6
CONTINUOUS
 62
     9
  5
24C
 10
378.14331
 20
6.14747
 30
0.0
  0
VERTEX
  8
ARM
  6
CONTINUOUS
 62
     9
  5
24D
 10
364.89331
 20
6.14717
 30
0.0
  0
SEQEND
  8
ARM
  6
CONTINUOUS
  5
24E
  0
POLYLINE
  8
ARM
  6
CONTINUOUS
 62
     9
  5
24F
 66
     1
 10
0.0
 20
0.0
 30
0.0
 70
     5
 75
     5
  0
VERTEX
  8
ARM
  6
CONTINUOUS
 62
     9
  5
250
 10
380.39331
 20
6.14747
 30
0.0
  0
VERTEX
  8
ARM
  6
CONTINUOUS
 62
     9
  5
251
 10
366.89331
 20
6.14717
 30
0.0
  0
VERTEX
  8
ARM
  6
CONTINUOUS
 62
     9
  5
252
 10
366.89331
 20
5.52217
 30
0.0
  0
VERTEX
  8
ARM
  6
CONTINUOUS
 62
     9
  5
253
 10
380.39331
 20
5.52247
 30
0.0
  0
SEQEND
  8
ARM
  6
CONTINUOUS
  5
254
  0
CIRCLE
  8
ARM
  6
CONTINUOUS
 62
     9
  5
255
 10
366.51811
 20
15.64717
 30
0.0
 40
0.49996
  0
CIRCLE
  8
ARM
  6
CONTINUOUS
 62
     9
  5
256
 10
366.51831
 20
7.64717
 30
0.0
 40
0.5
  0
POLYLINE
  8
TRACK
  6
CONTINUOUS
 62
     7
  5
257
 66
     1
 10
0.0
 20
0.0
 30
0.0
 70
     5
 75
     5
  0
VERTEX
  8
TRACK
  6
CONTINUOUS
 62
     7
  5
258
 10
-118.25
 20
32.2914
 30
0.0
  0
VERTEX
  8
TRACK
  6
CONTINUOUS
 62
     7
  5
259
 10
181.75
 20
32.2914
 30
0.0
  0
VERTEX
  8
TRACK
  6
CONTINUOUS
 62
     7
  5
25A
 10
181.75
 20
24.2914
 30
0.0
  0
VERTEX
  8
TRACK
  6
CONTINUOUS
 62
     7
  5
25B
 10
-118.25
 20
24.2914
 30
0.0
  0
SEQEND
  8
TRACK
  6
CONTINUOUS
  5
25C
  0
LINE
  8
TRACK
  6
CONTINUOUS
 62
     7
  5
25D
 10
-118.25
 20
31.9164
 30
0.0
 11
181.75
 21
31.9164
 31
0.0
  0
LINE
  8
TRACK
  6
CONTINUOUS
 62
     7
  5
25E
 10
-118.25
 20
24.6664
 30
0.0
 11
181.75
 21
24.6664
 31
0.0
  0
POLYLINE
  8
TRACK
  6
CONTINUOUS
 62
     7
  5
25F
 66
     1
 10
0.0
 20
0.0
 30
0.0
 70
     5
 75
     5
  0
VERTEX
  8
TRACK
  6
CONTINUOUS
 62
     7
  5
260
 10
-118.25
 20
35.4789
 30
0.0
  0
VERTEX
  8
TRACK
  6
CONTINUOUS
 62
     7
  5
261
 10
181.75
 20
35.4789
 30
0.0
  0
VERTEX
  8
TRACK
  6
CONTINUOUS
 62
     7
  5
262
 10
181.75
 20
33.9789
 30
0.0
  0
VERTEX
  8
TRACK
  6
CONTINUOUS
 62
     7
  5
263
 10
-118.25
 20
33.9789
 30
0.0
  0
SEQEND
  8
TRACK
  6
CONTINUOUS
  5
264
  0
POLYLINE
  8
TRACK
  6
CONTINUOUS
 62
     7
  5
265
 66
     1
 10
0.0
 20
0.0
 30
0.0
 70
     5
 75
     5
  0
VERTEX
  8
TRACK
  6
CONTINUOUS
 62
     7
  5
266
 10
-118.25
 20
33.9789
 30
0.0
  0
VERTEX
  8
TRACK
  6
CONTINUOUS
 62
     7
  5
267
 10
181.75
 20
33.9789
 30
0.0
  0
VERTEX
  8
TRACK
  6
CONTINUOUS
 62
     7
  5
268
 10
181.75
 20
32.2914
 30
0.0
  0
VERTEX
  8
TRACK
  6
CONTINUOUS
 62
     7
  5
269
 10
-118.25
 20
32.2914
 30
0.0
  0
SEQEND
  8
TRACK
  6
CONTINUOUS
  5
26A
  0
POLYLINE
  8
TRACK
  6
CONTINUOUS
 62
     7
  5
26B
 66
     1
 10
0.0
 20
0.0
 30
0.0
 70
     5
 75
     5
  0
VERTEX
  8
TRACK
  6
CONTINUOUS
 62
     7
  5
26C
 10
-118.25
 20
32.6039
 30
0.0
  0
VERTEX
  8
TRACK
  6
CONTINUOUS
 62
     7
  5
26D
 10
181.75
 20
32.6039
 30
0.0
  0
VERTEX
  8
TRACK
  6
CONTINUOUS
 62
     7
  5
26E
 10
181.75
 20
32.2914
 30
0.0
  0
VERTEX
  8
TRACK
  6
CONTINUOUS
 62
     7
  5
26F
 10
-118.25
 20
32.2914
 30
0.0
  0
SEQEND
  8
TRACK
  6
CONTINUOUS
  5
270
  0
POLYLINE
  8
TRAILER
  6
CONTINUOUS
 62
     7
  5
271
 66
     1
 10
0.0
 20
0.0
 30
0.0
 70
     5
 75
     5
  0
VERTEX
  8
TRAILER
  6
CONTINUOUS
 62
     7
  5
272
 10
-118.25
 20
24.2914
 30
0.0
  0
VERTEX
  8
TRAILER
  6
CONTINUOUS
 62
     7
  5
273
 10
181.75
 20
24.2914
 30
0.0
  0
VERTEX
  8
TRAILER
  6
CONTINUOUS
 62
     7
  5
274
 10
181.75
 20
20.1664
 30
0.0
  0
VERTEX
  8
TRAILER
  6
CONTINUOUS
 62
     7
  5
275
 10
-118.25
 20
20.1664
 30
0.0
  0
SEQEND
  8
TRAILER
  6
CONTINUOUS
  5
276
  0
POLYLINE
  8
TRAILER
  6
CONTINUOUS
 62
     7
  5
277
 66
     1
 10
0.0
 20
0.0
 30
0.0
 70
     5
 75
     5
  0
VERTEX
  8
TRAILER
  6
CONTINUOUS
 62
     7
  5
278
 10
92.2271
 20
25.9462
 30
0.0
  0
VERTEX
  8
TRAILER
  6
CONTINUOUS
 62
     7
  5
279
 10
92.8885
 20
24.098
 30
0.0
  0
VERTEX
  8
TRAILER
  6
CONTINUOUS
 62
     7
  5
27A
 10
93.3656
 20
22.1938
 30
0.0
  0
VERTEX
  8
TRAILER
  6
CONTINUOUS
 62
     7
  5
27B
 10
93.6537
 20
20.2521
 30
0.0
  0
VERTEX
  8
TRAILER
  6
CONTINUOUS
 62
     7
  5
27C
 10
93.75
 20
18.2914
 30
0.0
  0
VERTEX
  8
TRAILER
  6
CONTINUOUS
 62
     7
  5
27D
 10
22.0
 20
18.2914
 30
0.0
  0
VERTEX
  8
TRAILER
  6
CONTINUOUS
 62
     7
  5
27E
 10
22.0963
 20
20.2521
 30
0.0
  0
VERTEX
  8
TRAILER
  6
CONTINUOUS
 62
     7
  5
27F
 10
22.3844
 20
22.1938
 30
0.0
  0
VERTEX
  8
TRAILER
  6
CONTINUOUS
 62
     7
  5
280
 10
22.8615
 20
24.098
 30
0.0
  0
VERTEX
  8
TRAILER
  6
CONTINUOUS
 62
     7
  5
281
 10
23.5229
 20
25.9462
 30
0.0
  0
VERTEX
  8
TRAILER
  6
CONTINUOUS
 62
     7
  5
282
 10
24.3623
 20
27.7207
 30
0.0
  0
VERTEX
  8
TRAILER
  6
CONTINUOUS
 62
     7
  5
283
 10
25.3716
 20
29.4044
 30
0.0
  0
VERTEX
  8
TRAILER
  6
CONTINUOUS
 62
     7
  5
284
 10
26.5412
 20
30.981
 30
0.0
  0
VERTEX
  8
TRAILER
  6
CONTINUOUS
 62
     7
  5
285
 10
27.8596
 20
32.4353
 30
0.0
  0
VERTEX
  8
TRAILER
  6
CONTINUOUS
 62
     7
  5
286
 10
29.3142
 20
33.7534
 30
0.0
  0
VERTEX
  8
TRAILER
  6
CONTINUOUS
 62
     7
  5
287
 10
30.8911
 20
34.9225
 30
0.0
  0
VERTEX
  8
TRAILER
  6
CONTINUOUS
 62
     7
  5
288
 10
32.575
 20
35.9314
 30
0.0
  0
VERTEX
  8
TRAILER
  6
CONTINUOUS
 62
     7
  5
289
 10
34.3497
 20
36.7704
 30
0.0
  0
VERTEX
  8
TRAILER
  6
CONTINUOUS
 62
     7
  5
28A
 10
36.1981
 20
37.4314
 30
0.0
  0
VERTEX
  8
TRAILER
  6
CONTINUOUS
 62
     7
  5
28B
 10
38.1024
 20
37.908
 30
0.0
  0
VERTEX
  8
TRAILER
  6
CONTINUOUS
 62
     7
  5
28C
 10
40.0442
 20
38.1956
 30
0.0
  0
VERTEX
  8
TRAILER
  6
CONTINUOUS
 62
     7
  5
28D
 10
42.0
 20
38.2914
 30
0.0
  0
VERTEX
  8
TRAILER
  6
CONTINUOUS
 62
     7
  5
28E
 10
73.75
 20
38.2914
 30
0.0
  0
VERTEX
  8
TRAILER
  6
CONTINUOUS
 62
     7
  5
28F
 10
75.7058
 20
38.1956
 30
0.0
  0
VERTEX
  8
TRAILER
  6
CONTINUOUS
 62
     7
  5
290
 10
77.6476
 20
37.908
 30
0.0
  0
VERTEX
  8
TRAILER
  6
CONTINUOUS
 62
     7
  5
291
 10
79.5519
 20
37.4314
 30
0.0
  0
VERTEX
  8
TRAILER
  6
CONTINUOUS
 62
     7
  5
292
 10
81.4003
 20
36.7704
 30
0.0
  0
VERTEX
  8
TRAILER
  6
CONTINUOUS
 62
     7
  5
293
 10
83.175
 20
35.9314
 30
0.0
  0
VERTEX
  8
TRAILER
  6
CONTINUOUS
 62
     7
  5
294
 10
84.8589
 20
34.9225
 30
0.0
  0
VERTEX
  8
TRAILER
  6
CONTINUOUS
 62
     7
  5
295
 10
86.4358
 20
33.7534
 30
0.0
  0
VERTEX
  8
TRAILER
  6
CONTINUOUS
 62
     7
  5
296
 10
87.8905
 20
32.4353
 30
0.0
  0
VERTEX
  8
TRAILER
  6
CONTINUOUS
 62
     7
  5
297
 10
89.2088
 20
30.981
 30
0.0
  0
VERTEX
  8
TRAILER
  6
CONTINUOUS
 62
     7
  5
298
 10
90.3784
 20
29.4044
 30
0.0
  0
VERTEX
  8
TRAILER
  6
CONTINUOUS
 62
     7
  5
299
 10
91.3877
 20
27.7207
 30
0.0
  0
VERTEX
  8
TRAILER
  6
CONTINUOUS
 62
     7
  5
29A
 10
92.2271
 20
25.9462
 30
0.0
  0
SEQEND
  8
TRAILER
  6
CONTINUOUS
  5
29B
  0
CIRCLE
  8
TRAILER
  6
CONTINUOUS
 62
     7
  5
29C
 10
42.0
 20
18.2914
 30
0.0
 40
13.75
  0
CIRCLE
  8
TRAILER
  6
CONTINUOUS
 62
     7
  5
29D
 10
42.0
 20
18.2914
 30
0.0
 40
8.25
  0
CIRCLE
  8
TRAILER
  6
CONTINUOUS
 62
     7
  5
29E
 10
73.75
 20
18.2914
 30
0.0
 40
13.75
  0
CIRCLE
  8
TRAILER
  6
CONTINUOUS
 62
     7
  5
29F
 10
73.75
 20
18.2914
 30
0.0
 40
8.25
  0
POLYLINE
  8
TRAILER
  6
CONTINUOUS
 62
     7
  5
2A0
 66
     1
 10
0.0
 20
0.0
 30
0.0
 70
     5
 75
     5
  0
VERTEX
  8
TRAILER
  6
CONTINUOUS
 62
     7
  5
2A1
 10
61.2171
 20
32.2374
 30
0.0
  0
VERTEX
  8
TRAILER
  6
CONTINUOUS
 62
     7
  5
2A2
 10
60.8627
 20
31.9471
 30
0.0
  0
VERTEX
  8
TRAILER
  6
CONTINUOUS
 62
     7
  5
2A3
 10
60.4838
 20
31.6908
 30
0.0
  0
VERTEX
  8
TRAILER
  6
CONTINUOUS
 62
     7
  5
2A4
 10
60.083
 20
31.4702
 30
0.0
  0
VERTEX
  8
TRAILER
  6
CONTINUOUS
 62
     7
  5
2A5
 10
59.6638
 20
31.2872
 30
0.0
  0
VERTEX
  8
TRAILER
  6
CONTINUOUS
 62
     7
  5
2A6
 10
59.2296
 20
31.1433
 30
0.0
  0
VERTEX
  8
TRAILER
  6
CONTINUOUS
 62
     7
  5
2A7
 10
58.7839
 20
31.0396
 30
0.0
  0
VERTEX
  8
TRAILER
  6
CONTINUOUS
 62
     7
  5
2A8
 10
58.3308
 20
30.9771
 30
0.0
  0
VERTEX
  8
TRAILER
  6
CONTINUOUS
 62
     7
  5
2A9
 10
57.8762
 20
30.9563
 30
0.0
  0
VERTEX
  8
TRAILER
  6
CONTINUOUS
 62
     7
  5
2AA
 10
57.4193
 20
30.9771
 30
0.0
  0
VERTEX
  8
TRAILER
  6
CONTINUOUS
 62
     7
  5
2AB
 10
56.9661
 20
31.0396
 30
0.0
  0
VERTEX
  8
TRAILER
  6
CONTINUOUS
 62
     7
  5
2AC
 10
56.5205
 20
31.1432
 30
0.0
  0
VERTEX
  8
TRAILER
  6
CONTINUOUS
 62
     7
  5
2AD
 10
56.0862
 20
31.2872
 30
0.0
  0
VERTEX
  8
TRAILER
  6
CONTINUOUS
 62
     7
  5
2AE
 10
55.667
 20
31.4702
 30
0.0
  0
VERTEX
  8
TRAILER
  6
CONTINUOUS
 62
     7
  5
2AF
 10
55.2662
 20
31.6908
 30
0.0
  0
VERTEX
  8
TRAILER
  6
CONTINUOUS
 62
     7
  5
2B0
 10
54.8873
 20
31.9471
 30
0.0
  0
VERTEX
  8
TRAILER
  6
CONTINUOUS
 62
     7
  5
2B1
 10
54.5329
 20
32.2374
 30
0.0
  0
VERTEX
  8
TRAILER
  6
CONTINUOUS
 62
     7
  5
2B2
 10
52.4006
 20
33.8924
 30
0.0
  0
VERTEX
  8
TRAILER
  6
CONTINUOUS
 62
     7
  5
2B3
 10
50.0549
 20
35.2231
 30
0.0
  0
VERTEX
  8
TRAILER
  6
CONTINUOUS
 62
     7
  5
2B4
 10
47.5427
 20
36.2035
 30
0.0
  0
VERTEX
  8
TRAILER
  6
CONTINUOUS
 62
     7
  5
2B5
 10
44.9158
 20
36.8133
 30
0.0
  0
VERTEX
  8
TRAILER
  6
CONTINUOUS
 62
     7
  5
2B6
 10
42.2286
 20
37.04
 30
0.0
  0
VERTEX
  8
TRAILER
  6
CONTINUOUS
 62
     7
  5
2B7
 10
39.5457
 20
36.8801
 30
0.0
  0
VERTEX
  8
TRAILER
  6
CONTINUOUS
 62
     7
  5
2B8
 10
36.9045
 20
36.3358
 30
0.0
  0
VERTEX
  8
TRAILER
  6
CONTINUOUS
 62
     7
  5
2B9
 10
34.3686
 20
35.4181
 30
0.0
  0
VERTEX
  8
TRAILER
  6
CONTINUOUS
 62
     7
  5
2BA
 10
31.9907
 20
34.1462
 30
0.0
  0
VERTEX
  8
TRAILER
  6
CONTINUOUS
 62
     7
  5
2BB
 10
29.8198
 20
32.5464
 30
0.0
  0
VERTEX
  8
TRAILER
  6
CONTINUOUS
 62
     7
  5
2BC
 10
27.9007
 20
30.6514
 30
0.0
  0
VERTEX
  8
TRAILER
  6
CONTINUOUS
 62
     7
  5
2BD
 10
26.2734
 20
28.501
 30
0.0
  0
VERTEX
  8
TRAILER
  6
CONTINUOUS
 62
     7
  5
2BE
 10
24.9714
 20
26.1393
 30
0.0
  0
VERTEX
  8
TRAILER
  6
CONTINUOUS
 62
     7
  5
2BF
 10
24.0217
 20
23.6153
 30
0.0
  0
VERTEX
  8
TRAILER
  6
CONTINUOUS
 62
     7
  5
2C0
 10
23.4439
 20
20.9812
 30
0.0
  0
VERTEX
  8
TRAILER
  6
CONTINUOUS
 62
     7
  5
2C1
 10
23.25
 20
18.2914
 30
0.0
  0
VERTEX
  8
TRAILER
  6
CONTINUOUS
 62
     7
  5
2C2
 10
22.0
 20
18.2914
 30
0.0
  0
VERTEX
  8
TRAILER
  6
CONTINUOUS
 62
     7
  5
2C3
 10
22.0963
 20
20.2521
 30
0.0
  0
VERTEX
  8
TRAILER
  6
CONTINUOUS
 62
     7
  5
2C4
 10
22.3844
 20
22.1938
 30
0.0
  0
VERTEX
  8
TRAILER
  6
CONTINUOUS
 62
     7
  5
2C5
 10
22.8615
 20
24.098
 30
0.0
  0
VERTEX
  8
TRAILER
  6
CONTINUOUS
 62
     7
  5
2C6
 10
23.5229
 20
25.9462
 30
0.0
  0
VERTEX
  8
TRAILER
  6
CONTINUOUS
 62
     7
  5
2C7
 10
24.3623
 20
27.7207
 30
0.0
  0
VERTEX
  8
TRAILER
  6
CONTINUOUS
 62
     7
  5
2C8
 10
25.3716
 20
29.4044
 30
0.0
  0
VERTEX
  8
TRAILER
  6
CONTINUOUS
 62
     7
  5
2C9
 10
26.5412
 20
30.981
 30
0.0
  0
VERTEX
  8
TRAILER
  6
CONTINUOUS
 62
     7
  5
2CA
 10
27.8596
 20
32.4353
 30
0.0
  0
VERTEX
  8
TRAILER
  6
CONTINUOUS
 62
     7
  5
2CB
 10
29.3142
 20
33.7534
 30
0.0
  0
VERTEX
  8
TRAILER
  6
CONTINUOUS
 62
     7
  5
2CC
 10
30.8911
 20
34.9225
 30
0.0
  0
VERTEX
  8
TRAILER
  6
CONTINUOUS
 62
     7
  5
2CD
 10
32.575
 20
35.9314
 30
0.0
  0
VERTEX
  8
TRAILER
  6
CONTINUOUS
 62
     7
  5
2CE
 10
34.3497
 20
36.7704
 30
0.0
  0
VERTEX
  8
TRAILER
  6
CONTINUOUS
 62
     7
  5
2CF
 10
36.1981
 20
37.4314
 30
0.0
  0
VERTEX
  8
TRAILER
  6
CONTINUOUS
 62
     7
  5
2D0
 10
38.1024
 20
37.908
 30
0.0
  0
VERTEX
  8
TRAILER
  6
CONTINUOUS
 62
     7
  5
2D1
 10
40.0442
 20
38.1956
 30
0.0
  0
VERTEX
  8
TRAILER
  6
CONTINUOUS
 62
     7
  5
2D2
 10
42.0
 20
38.2914
 30
0.0
  0
VERTEX
  8
TRAILER
  6
CONTINUOUS
 62
     7
  5
2D3
 10
73.75
 20
38.2914
 30
0.0
  0
VERTEX
  8
TRAILER
  6
CONTINUOUS
 62
     7
  5
2D4
 10
75.7058
 20
38.1956
 30
0.0
  0
VERTEX
  8
TRAILER
  6
CONTINUOUS
 62
     7
  5
2D5
 10
77.6476
 20
37.908
 30
0.0
  0
VERTEX
  8
TRAILER
  6
CONTINUOUS
 62
     7
  5
2D6
 10
79.5519
 20
37.4314
 30
0.0
  0
VERTEX
  8
TRAILER
  6
CONTINUOUS
 62
     7
  5
2D7
 10
81.4003
 20
36.7704
 30
0.0
  0
VERTEX
  8
TRAILER
  6
CONTINUOUS
 62
     7
  5
2D8
 10
83.175
 20
35.9314
 30
0.0
  0
VERTEX
  8
TRAILER
  6
CONTINUOUS
 62
     7
  5
2D9
 10
84.8589
 20
34.9225
 30
0.0
  0
VERTEX
  8
TRAILER
  6
CONTINUOUS
 62
     7
  5
2DA
 10
86.4358
 20
33.7534
 30
0.0
  0
VERTEX
  8
TRAILER
  6
CONTINUOUS
 62
     7
  5
2DB
 10
87.8905
 20
32.4353
 30
0.0
  0
VERTEX
  8
TRAILER
  6
CONTINUOUS
 62
     7
  5
2DC
 10
89.2088
 20
30.981
 30
0.0
  0
VERTEX
  8
TRAILER
  6
CONTINUOUS
 62
     7
  5
2DD
 10
90.3784
 20
29.4044
 30
0.0
  0
VERTEX
  8
TRAILER
  6
CONTINUOUS
 62
     7
  5
2DE
 10
91.3877
 20
27.7207
 30
0.0
  0
VERTEX
  8
TRAILER
  6
CONTINUOUS
 62
     7
  5
2DF
 10
92.2271
 20
25.9462
 30
0.0
  0
VERTEX
  8
TRAILER
  6
CONTINUOUS
 62
     7
  5
2E0
 10
92.8885
 20
24.098
 30
0.0
  0
VERTEX
  8
TRAILER
  6
CONTINUOUS
 62
     7
  5
2E1
 10
93.3656
 20
22.1938
 30
0.0
  0
VERTEX
  8
TRAILER
  6
CONTINUOUS
 62
     7
  5
2E2
 10
93.6537
 20
20.2521
 30
0.0
  0
VERTEX
  8
TRAILER
  6
CONTINUOUS
 62
     7
  5
2E3
 10
93.75
 20
18.2914
 30
0.0
  0
VERTEX
  8
TRAILER
  6
CONTINUOUS
 62
     7
  5
2E4
 10
92.5
 20
18.2914
 30
0.0
  0
VERTEX
  8
TRAILER
  6
CONTINUOUS
 62
     7
  5
2E5
 10
92.3061
 20
20.9812
 30
0.0
  0
VERTEX
  8
TRAILER
  6
CONTINUOUS
 62
     7
  5
2E6
 10
91.7283
 20
23.6153
 30
0.0
  0
VERTEX
  8
TRAILER
  6
CONTINUOUS
 62
     7
  5
2E7
 10
90.7786
 20
26.1393
 30
0.0
  0
VERTEX
  8
TRAILER
  6
CONTINUOUS
 62
     7
  5
2E8
 10
89.4766
 20
28.501
 30
0.0
  0
VERTEX
  8
TRAILER
  6
CONTINUOUS
 62
     7
  5
2E9
 10
87.8494
 20
30.6515
 30
0.0
  0
VERTEX
  8
TRAILER
  6
CONTINUOUS
 62
     7
  5
2EA
 10
85.9303
 20
32.5464
 30
0.0
  0
VERTEX
  8
TRAILER
  6
CONTINUOUS
 62
     7
  5
2EB
 10
83.7594
 20
34.1462
 30
0.0
  0
VERTEX
  8
TRAILER
  6
CONTINUOUS
 62
     7
  5
2EC
 10
81.3814
 20
35.4182
 30
0.0
  0
VERTEX
  8
TRAILER
  6
CONTINUOUS
 62
     7
  5
2ED
 10
78.8455
 20
36.3358
 30
0.0
  0
VERTEX
  8
TRAILER
  6
CONTINUOUS
 62
     7
  5
2EE
 10
76.2043
 20
36.8801
 30
0.0
  0
VERTEX
  8
TRAILER
  6
CONTINUOUS
 62
     7
  5
2EF
 10
73.5214
 20
37.04
 30
0.0
  0
VERTEX
  8
TRAILER
  6
CONTINUOUS
 62
     7
  5
2F0
 10
70.8342
 20
36.8133
 30
0.0
  0
VERTEX
  8
TRAILER
  6
CONTINUOUS
 62
     7
  5
2F1
 10
68.2073
 20
36.2035
 30
0.0
  0
VERTEX
  8
TRAILER
  6
CONTINUOUS
 62
     7
  5
2F2
 10
65.6951
 20
35.2231
 30
0.0
  0
VERTEX
  8
TRAILER
  6
CONTINUOUS
 62
     7
  5
2F3
 10
63.3495
 20
33.8924
 30
0.0
  0
VERTEX
  8
TRAILER
  6
CONTINUOUS
 62
     7
  5
2F4
 10
61.2171
 20
32.2374
 30
0.0
  0
SEQEND
  8
TRAILER
  6
CONTINUOUS
  5
2F5
  0
POLYLINE
  8
TRAILER
  6
CONTINUOUS
 62
     7
  5
2F6
 66
     1
 10
0.0
 20
0.0
 30
0.0
 70
     5
 75
     5
  0
VERTEX
  8
TRAILER
  6
CONTINUOUS
 62
     7
  5
2F7
 10
-162.75
 20
24.2914
 30
0.0
  0
VERTEX
  8
TRAILER
  6
CONTINUOUS
 62
     7
  5
2F8
 10
-118.25
 20
24.2914
 30
0.0
  0
VERTEX
  8
TRAILER
  6
CONTINUOUS
 62
     7
  5
2F9
 10
-118.25
 20
19.2914
 30
0.0
  0
VERTEX
  8
TRAILER
  6
CONTINUOUS
 62
     7
  5
2FA
 10
-162.75
 20
19.2914
 30
0.0
  0
SEQEND
  8
TRAILER
  6
CONTINUOUS
  5
2FB
  0
POLYLINE
  8
TRAILER
  6
CONTINUOUS
 62
     7
  5
2FC
 66
     1
 10
0.0
 20
0.0
 30
0.0
 70
     5
 75
     5
  0
VERTEX
  8
TRAILER
  6
CONTINUOUS
 62
     7
  5
2FD
 10
-161.875
 20
21.6039
 30
0.0
  0
VERTEX
  8
TRAILER
  6
CONTINUOUS
 62
     7
  5
2FE
 10
-163.75
 20
21.6039
 30
0.0
  0
VERTEX
  8
TRAILER
  6
CONTINUOUS
 62
     7
  5
2FF
 10
-166.0
 20
22.4164
 30
0.0
  0
VERTEX
  8
TRAILER
  6
CONTINUOUS
 62
     7
  5
300
 10
-169.25
 20
22.4164
 30
0.0
  0
VERTEX
  8
TRAILER
  6
CONTINUOUS
 62
     7
  5
301
 10
-169.25
 20
22.8539
 30
0.0
  0
VERTEX
  8
TRAILER
  6
CONTINUOUS
 62
     7
  5
302
 10
-169.2293
 20
23.127
 30
0.0
  0
VERTEX
  8
TRAILER
  6
CONTINUOUS
 62
     7
  5
303
 10
-169.1677
 20
23.3939
 30
0.0
  0
VERTEX
  8
TRAILER
  6
CONTINUOUS
 62
     7
  5
304
 10
-169.0666
 20
23.6484
 30
0.0
  0
VERTEX
  8
TRAILER
  6
CONTINUOUS
 62
     7
  5
305
 10
-168.9283
 20
23.8848
 30
0.0
  0
VERTEX
  8
TRAILER
  6
CONTINUOUS
 62
     7
  5
306
 10
-168.7559
 20
24.0977
 30
0.0
  0
VERTEX
  8
TRAILER
  6
CONTINUOUS
 62
     7
  5
307
 10
-168.5535
 20
24.2821
 30
0.0
  0
VERTEX
  8
TRAILER
  6
CONTINUOUS
 62
     7
  5
308
 10
-168.3256
 20
24.434
 30
0.0
  0
VERTEX
  8
TRAILER
  6
CONTINUOUS
 62
     7
  5
309
 10
-168.0773
 20
24.5497
 30
0.0
  0
VERTEX
  8
TRAILER
  6
CONTINUOUS
 62
     7
  5
30A
 10
-167.8145
 20
24.6268
 30
0.0
  0
VERTEX
  8
TRAILER
  6
CONTINUOUS
 62
     7
  5
30B
 10
-167.5431
 20
24.6633
 30
0.0
  0
VERTEX
  8
TRAILER
  6
CONTINUOUS
 62
     7
  5
30C
 10
-167.2701
 20
24.6587
 30
0.0
  0
VERTEX
  8
TRAILER
  6
CONTINUOUS
 62
     7
  5
30D
 10
-167.0001
 20
24.6129
 30
0.0
  0
VERTEX
  8
TRAILER
  6
CONTINUOUS
 62
     7
  5
30E
 10
-166.7401
 20
24.5269
 30
0.0
  0
VERTEX
  8
TRAILER
  6
CONTINUOUS
 62
     7
  5
30F
 10
-166.496
 20
24.4027
 30
0.0
  0
VERTEX
  8
TRAILER
  6
CONTINUOUS
 62
     7
  5
310
 10
-166.2734
 20
24.2432
 30
0.0
  0
VERTEX
  8
TRAILER
  6
CONTINUOUS
 62
     7
  5
311
 10
-166.0772
 20
24.0517
 30
0.0
  0
VERTEX
  8
TRAILER
  6
CONTINUOUS
 62
     7
  5
312
 10
-164.6875
 20
24.6664
 30
0.0
  0
VERTEX
  8
TRAILER
  6
CONTINUOUS
 62
     7
  5
313
 10
-154.0
 20
24.6664
 30
0.0
  0
VERTEX
  8
TRAILER
  6
CONTINUOUS
 62
     7
  5
314
 10
-154.0
 20
24.2914
 30
0.0
  0
VERTEX
  8
TRAILER
  6
CONTINUOUS
 62
     7
  5
315
 10
-161.875
 20
21.6039
 30
0.0
  0
SEQEND
  8
TRAILER
  6
CONTINUOUS
  5
316
  0
POLYLINE
  8
TRAILER
  6
CONTINUOUS
 62
     7
  5
317
 66
     1
 10
0.0
 20
0.0
 30
0.0
 70
     5
 75
     5
  0
VERTEX
  8
TRAILER
  6
CONTINUOUS
 62
     7
  5
318
 10
-31.5
 20
12.0
 30
0.0
  0
VERTEX
  8
TRAILER
  6
CONTINUOUS
 62
     7
  5
319
 10
-29.5
 20
12.0
 30
0.0
  0
VERTEX
  8
TRAILER
  6
CONTINUOUS
 62
     7
  5
31A
 10
-29.5
 20
0.0
 30
0.0
  0
VERTEX
  8
TRAILER
  6
CONTINUOUS
 62
     7
  5
31B
 10
-31.5
 20
0.0
 30
0.0
  0
SEQEND
  8
TRAILER
  6
CONTINUOUS
  5
31C
  0
POLYLINE
  8
TRAILER
  6
CONTINUOUS
 62
     7
  5
31D
 66
     1
 10
0.0
 20
0.0
 30
0.0
 70
     5
 75
     5
  0
VERTEX
  8
TRAILER
  6
CONTINUOUS
 62
     7
  5
31E
 10
-31.625
 20
21.4204
 30
0.0
  0
VERTEX
  8
TRAILER
  6
CONTINUOUS
 62
     7
  5
31F
 10
-29.375
 20
21.4204
 30
0.0
  0
VERTEX
  8
TRAILER
  6
CONTINUOUS
 62
     7
  5
320
 10
-29.375
 20
9.4204
 30
0.0
  0
VERTEX
  8
TRAILER
  6
CONTINUOUS
 62
     7
  5
321
 10
-31.625
 20
9.4204
 30
0.0
  0
SEQEND
  8
TRAILER
  6
CONTINUOUS
  5
322
  0
LINE
  8
TRAILER
  6
CONTINUOUS
 62
     7
  5
323
 10
-31.75
 20
36.1664
 30
0.0
 11
-31.75
 21
20.1664
 31
0.0
  0
POLYLINE
  8
TRAILER
  6
CONTINUOUS
 62
     7
  5
324
 66
     1
 10
0.0
 20
0.0
 30
0.0
 70
     5
 75
     5
  0
VERTEX
  8
TRAILER
  6
CONTINUOUS
 62
     7
  5
325
 10
-31.75
 20
37.6664
 30
0.0
  0
VERTEX
  8
TRAILER
  6
CONTINUOUS
 62
     7
  5
326
 10
-29.25
 20
37.6664
 30
0.0
  0
VERTEX
  8
TRAILER
  6
CONTINUOUS
 62
     7
  5
327
 10
-29.25
 20
19.4164
 30
0.0
  0
VERTEX
  8
TRAILER
  6
CONTINUOUS
 62
     7
  5
328
 10
-31.75
 20
19.4164
 30
0.0
  0
SEQEND
  8
TRAILER
  6
CONTINUOUS
  5
329
  0
POLYLINE
  8
TRAILER
  6
CONTINUOUS
 62
     7
  5
32A
 66
     1
 10
0.0
 20
0.0
 30
0.0
 70
     5
 75
     5
  0
VERTEX
  8
TRAILER
  6
CONTINUOUS
 62
     7
  5
32B
 10
-27.5
 20
0.375
 30
0.0
  0
VERTEX
  8
TRAILER
  6
CONTINUOUS
 62
     7
  5
32C
 10
-33.5
 20
0.375
 30
0.0
  0
VERTEX
  8
TRAILER
  6
CONTINUOUS
 62
     7
  5
32D
 10
-33.5
 20
0.1797
 30
0.0
  0
VERTEX
  8
TRAILER
  6
CONTINUOUS
 62
     7
  5
32E
 10
-32.7386
 20
0.0
 30
0.0
  0
VERTEX
  8
TRAILER
  6
CONTINUOUS
 62
     7
  5
32F
 10
-28.2615
 20
0.0
 30
0.0
  0
VERTEX
  8
TRAILER
  6
CONTINUOUS
 62
     7
  5
330
 10
-27.5
 20
0.1797
 30
0.0
  0
SEQEND
  8
TRAILER
  6
CONTINUOUS
  5
331
  0
CIRCLE
  8
TRAILER
  6
CONTINUOUS
 62
     7
  5
332
 10
-30.5
 20
1.875
 30
0.0
 40
0.3125
  0
CIRCLE
  8
TRAILER
  6
CONTINUOUS
 62
     7
  5
333
 10
-30.5
 20
5.875
 30
0.0
 40
0.3125
  0
POLYLINE
  8
TRAILER
  6
CONTINUOUS
 62
     7
  5
334
 66
     1
 10
0.0
 20
0.0
 30
0.0
 70
     5
 75
     5
  0
VERTEX
  8
TRAILER
  6
CONTINUOUS
 62
     7
  5
335
 10
-118.0
 20
12.0
 30
0.0
  0
VERTEX
  8
TRAILER
  6
CONTINUOUS
 62
     7
  5
336
 10
-116.0
 20
12.0
 30
0.0
  0
VERTEX
  8
TRAILER
  6
CONTINUOUS
 62
     7
  5
337
 10
-116.0
 20
0.0
 30
0.0
  0
VERTEX
  8
TRAILER
  6
CONTINUOUS
 62
     7
  5
338
 10
-118.0
 20
0.0
 30
0.0
  0
SEQEND
  8
TRAILER
  6
CONTINUOUS
  5
339
  0
POLYLINE
  8
TRAILER
  6
CONTINUOUS
 62
     7
  5
33A
 66
     1
 10
0.0
 20
0.0
 30
0.0
 70
     5
 75
     5
  0
VERTEX
  8
TRAILER
  6
CONTINUOUS
 62
     7
  5
33B
 10
-118.125
 20
21.4204
 30
0.0
  0
VERTEX
  8
TRAILER
  6
CONTINUOUS
 62
     7
  5
33C
 10
-115.875
 20
21.4204
 30
0.0
  0
VERTEX
  8
TRAILER
  6
CONTINUOUS
 62
     7
  5
33D
 10
-115.875
 20
9.4204
 30
0.0
  0
VERTEX
  8
TRAILER
  6
CONTINUOUS
 62
     7
  5
33E
 10
-118.125
 20
9.4204
 30
0.0
  0
SEQEND
  8
TRAILER
  6
CONTINUOUS
  5
33F
  0
LINE
  8
TRAILER
  6
CONTINUOUS
 62
     7
  5
340
 10
-118.25
 20
36.1664
 30
0.0
 11
-118.25
 21
20.1664
 31
0.0
  0
POLYLINE
  8
TRAILER
  6
CONTINUOUS
 62
     7
  5
341
 66
     1
 10
0.0
 20
0.0
 30
0.0
 70
     5
 75
     5
  0
VERTEX
  8
TRAILER
  6
CONTINUOUS
 62
     7
  5
342
 10
-118.25
 20
37.6664
 30
0.0
  0
VERTEX
  8
TRAILER
  6
CONTINUOUS
 62
     7
  5
343
 10
-115.75
 20
37.6664
 30
0.0
  0
VERTEX
  8
TRAILER
  6
CONTINUOUS
 62
     7
  5
344
 10
-115.75
 20
19.4164
 30
0.0
  0
VERTEX
  8
TRAILER
  6
CONTINUOUS
 62
     7
  5
345
 10
-118.25
 20
19.4164
 30
0.0
  0
SEQEND
  8
TRAILER
  6
CONTINUOUS
  5
346
  0
POLYLINE
  8
TRAILER
  6
CONTINUOUS
 62
     7
  5
347
 66
     1
 10
0.0
 20
0.0
 30
0.0
 70
     5
 75
     5
  0
VERTEX
  8
TRAILER
  6
CONTINUOUS
 62
     7
  5
348
 10
-114.0
 20
0.375
 30
0.0
  0
VERTEX
  8
TRAILER
  6
CONTINUOUS
 62
     7
  5
349
 10
-120.0
 20
0.375
 30
0.0
  0
VERTEX
  8
TRAILER
  6
CONTINUOUS
 62
     7
  5
34A
 10
-120.0
 20
0.1797
 30
0.0
  0
VERTEX
  8
TRAILER
  6
CONTINUOUS
 62
     7
  5
34B
 10
-119.2386
 20
0.0
 30
0.0
  0
VERTEX
  8
TRAILER
  6
CONTINUOUS
 62
     7
  5
34C
 10
-114.7615
 20
0.0
 30
0.0
  0
VERTEX
  8
TRAILER
  6
CONTINUOUS
 62
     7
  5
34D
 10
-114.0
 20
0.1797
 30
0.0
  0
SEQEND
  8
TRAILER
  6
CONTINUOUS
  5
34E
  0
CIRCLE
  8
TRAILER
  6
CONTINUOUS
 62
     7
  5
34F
 10
-117.0
 20
1.875
 30
0.0
 40
0.3125
  0
CIRCLE
  8
TRAILER
  6
CONTINUOUS
 62
     7
  5
350
 10
-117.0
 20
5.875
 30
0.0
 40
0.3125
  0
POLYLINE
  8
TRAILER
  6
CONTINUOUS
 62
     7
  5
351
 66
     1
 10
0.0
 20
0.0
 30
0.0
 70
     5
 75
     5
  0
VERTEX
  8
TRAILER
  6
CONTINUOUS
 62
     7
  5
352
 10
94.0
 20
12.0
 30
0.0
  0
VERTEX
  8
TRAILER
  6
CONTINUOUS
 62
     7
  5
353
 10
96.0
 20
12.0
 30
0.0
  0
VERTEX
  8
TRAILER
  6
CONTINUOUS
 62
     7
  5
354
 10
96.0
 20
0.0
 30
0.0
  0
VERTEX
  8
TRAILER
  6
CONTINUOUS
 62
     7
  5
355
 10
94.0
 20
0.0
 30
0.0
  0
SEQEND
  8
TRAILER
  6
CONTINUOUS
  5
356
  0
POLYLINE
  8
TRAILER
  6
CONTINUOUS
 62
     7
  5
357
 66
     1
 10
0.0
 20
0.0
 30
0.0
 70
     5
 75
     5
  0
VERTEX
  8
TRAILER
  6
CONTINUOUS
 62
     7
  5
358
 10
93.875
 20
21.4204
 30
0.0
  0
VERTEX
  8
TRAILER
  6
CONTINUOUS
 62
     7
  5
359
 10
96.125
 20
21.4204
 30
0.0
  0
VERTEX
  8
TRAILER
  6
CONTINUOUS
 62
     7
  5
35A
 10
96.125
 20
9.4204
 30
0.0
  0
VERTEX
  8
TRAILER
  6
CONTINUOUS
 62
     7
  5
35B
 10
93.875
 20
9.4204
 30
0.0
  0
SEQEND
  8
TRAILER
  6
CONTINUOUS
  5
35C
  0
LINE
  8
TRAILER
  6
CONTINUOUS
 62
     7
  5
35D
 10
93.75
 20
36.1664
 30
0.0
 11
93.75
 21
20.1664
 31
0.0
  0
POLYLINE
  8
TRAILER
  6
CONTINUOUS
 62
     7
  5
35E
 66
     1
 10
0.0
 20
0.0
 30
0.0
 70
     5
 75
     5
  0
VERTEX
  8
TRAILER
  6
CONTINUOUS
 62
     7
  5
35F
 10
93.75
 20
37.6664
 30
0.0
  0
VERTEX
  8
TRAILER
  6
CONTINUOUS
 62
     7
  5
360
 10
96.25
 20
37.6664
 30
0.0
  0
VERTEX
  8
TRAILER
  6
CONTINUOUS
 62
     7
  5
361
 10
96.25
 20
19.4164
 30
0.0
  0
VERTEX
  8
TRAILER
  6
CONTINUOUS
 62
     7
  5
362
 10
93.75
 20
19.4164
 30
0.0
  0
SEQEND
  8
TRAILER
  6
CONTINUOUS
  5
363
  0
POLYLINE
  8
TRAILER
  6
CONTINUOUS
 62
     7
  5
364
 66
     1
 10
0.0
 20
0.0
 30
0.0
 70
     5
 75
     5
  0
VERTEX
  8
TRAILER
  6
CONTINUOUS
 62
     7
  5
365
 10
98.0
 20
0.375
 30
0.0
  0
VERTEX
  8
TRAILER
  6
CONTINUOUS
 62
     7
  5
366
 10
92.0
 20
0.375
 30
0.0
  0
VERTEX
  8
TRAILER
  6
CONTINUOUS
 62
     7
  5
367
 10
92.0
 20
0.1797
 30
0.0
  0
VERTEX
  8
TRAILER
  6
CONTINUOUS
 62
     7
  5
368
 10
92.7614
 20
0.0
 30
0.0
  0
VERTEX
  8
TRAILER
  6
CONTINUOUS
 62
     7
  5
369
 10
97.2386
 20
0.0
 30
0.0
  0
VERTEX
  8
TRAILER
  6
CONTINUOUS
 62
     7
  5
36A
 10
98.0
 20
0.1797
 30
0.0
  0
SEQEND
  8
TRAILER
  6
CONTINUOUS
  5
36B
  0
CIRCLE
  8
TRAILER
  6
CONTINUOUS
 62
     7
  5
36C
 10
95.0
 20
1.875
 30
0.0
 40
0.3125
  0
CIRCLE
  8
TRAILER
  6
CONTINUOUS
 62
     7
  5
36D
 10
95.0
 20
5.875
 30
0.0
 40
0.3125
  0
POLYLINE
  8
TRAILER
  6
CONTINUOUS
 62
     7
  5
36E
 66
     1
 10
0.0
 20
0.0
 30
0.0
 70
     5
 75
     5
  0
VERTEX
  8
TRAILER
  6
CONTINUOUS
 62
     7
  5
36F
 10
179.5
 20
12.0
 30
0.0
  0
VERTEX
  8
TRAILER
  6
CONTINUOUS
 62
     7
  5
370
 10
181.5
 20
12.0
 30
0.0
  0
VERTEX
  8
TRAILER
  6
CONTINUOUS
 62
     7
  5
371
 10
181.5
 20
0.0
 30
0.0
  0
VERTEX
  8
TRAILER
  6
CONTINUOUS
 62
     7
  5
372
 10
179.5
 20
0.0
 30
0.0
  0
SEQEND
  8
TRAILER
  6
CONTINUOUS
  5
373
  0
POLYLINE
  8
TRAILER
  6
CONTINUOUS
 62
     7
  5
374
 66
     1
 10
0.0
 20
0.0
 30
0.0
 70
     5
 75
     5
  0
VERTEX
  8
TRAILER
  6
CONTINUOUS
 62
     7
  5
375
 10
179.375
 20
21.4204
 30
0.0
  0
VERTEX
  8
TRAILER
  6
CONTINUOUS
 62
     7
  5
376
 10
181.625
 20
21.4204
 30
0.0
  0
VERTEX
  8
TRAILER
  6
CONTINUOUS
 62
     7
  5
377
 10
181.625
 20
9.4204
 30
0.0
  0
VERTEX
  8
TRAILER
  6
CONTINUOUS
 62
     7
  5
378
 10
179.375
 20
9.4204
 30
0.0
  0
SEQEND
  8
TRAILER
  6
CONTINUOUS
  5
379
  0
LINE
  8
TRAILER
  6
CONTINUOUS
 62
     7
  5
37A
 10
179.25
 20
36.1664
 30
0.0
 11
179.25
 21
20.1664
 31
0.0
  0
POLYLINE
  8
TRAILER
  6
CONTINUOUS
 62
     7
  5
37B
 66
     1
 10
0.0
 20
0.0
 30
0.0
 70
     5
 75
     5
  0
VERTEX
  8
TRAILER
  6
CONTINUOUS
 62
     7
  5
37C
 10
179.25
 20
37.6664
 30
0.0
  0
VERTEX
  8
TRAILER
  6
CONTINUOUS
 62
     7
  5
37D
 10
181.75
 20
37.6664
 30
0.0
  0
VERTEX
  8
TRAILER
  6
CONTINUOUS
 62
     7
  5
37E
 10
181.75
 20
19.4164
 30
0.0
  0
VERTEX
  8
TRAILER
  6
CONTINUOUS
 62
     7
  5
37F
 10
179.25
 20
19.4164
 30
0.0
  0
SEQEND
  8
TRAILER
  6
CONTINUOUS
  5
380
  0
POLYLINE
  8
TRAILER
  6
CONTINUOUS
 62
     7
  5
381
 66
     1
 10
0.0
 20
0.0
 30
0.0
 70
     5
 75
     5
  0
VERTEX
  8
TRAILER
  6
CONTINUOUS
 62
     7
  5
382
 10
183.5
 20
0.375
 30
0.0
  0
VERTEX
  8
TRAILER
  6
CONTINUOUS
 62
     7
  5
383
 10
177.5
 20
0.375
 30
0.0
  0
VERTEX
  8
TRAILER
  6
CONTINUOUS
 62
     7
  5
384
 10
177.5
 20
0.1797
 30
0.0
  0
VERTEX
  8
TRAILER
  6
CONTINUOUS
 62
     7
  5
385
 10
178.2614
 20
0.0
 30
0.0
  0
VERTEX
  8
TRAILER
  6
CONTINUOUS
 62
     7
  5
386
 10
182.7386
 20
0.0
 30
0.0
  0
VERTEX
  8
TRAILER
  6
CONTINUOUS
 62
     7
  5
387
 10
183.5
 20
0.1797
 30
0.0
  0
SEQEND
  8
TRAILER
  6
CONTINUOUS
  5
388
  0
CIRCLE
  8
TRAILER
  6
CONTINUOUS
 62
     7
  5
389
 10
180.5
 20
1.875
 30
0.0
 40
0.3125
  0
CIRCLE
  8
TRAILER
  6
CONTINUOUS
 62
     7
  5
38A
 10
180.5
 20
5.875
 30
0.0
 40
0.3125
  0
CIRCLE
  8
TRAILER
  6
CONTINUOUS
 62
     7
  5
38B
 10
42.0
 20
18.2914
 30
0.0
 40
7.2304
  0
CIRCLE
  8
TRAILER
  6
CONTINUOUS
 62
     7
  5
38C
 10
73.75
 20
18.2914
 30
0.0
 40
7.2304
  0
CIRCLE
  8
TRAILER
  6
CONTINUOUS
 62
     7
  5
38D
 10
42.0
 20
18.2914
 30
0.0
 40
1.5
  0
CIRCLE
  8
TRAILER
  6
CONTINUOUS
 62
     7
  5
38E
 10
73.75
 20
18.2914
 30
0.0
 40
1.5
  0
POLYLINE
  8
DOLLY
  6
CONTINUOUS
 62
     7
  5
38F
 66
     1
 10
0.0
 20
0.0
 30
0.0
 70
     1
  0
VERTEX
  8
DOLLY
  6
CONTINUOUS
 62
     7
  5
390
 10
-103.0
 20
73.9789
 30
0.0
  0
VERTEX
  8
DOLLY
  6
CONTINUOUS
 62
     7
  5
391
 10
-43.0
 20
73.9789
 30
0.0
  0
VERTEX
  8
DOLLY
  6
CONTINUOUS
 62
     7
  5
392
 10
-43.0
 20
85.9789
 30
0.0
  0
VERTEX
  8
DOLLY
  6
CONTINUOUS
 62
     7
  5
393
 10
-103.0
 20
85.9789
 30
0.0
  0
SEQEND
  8
DOLLY
  6
CONTINUOUS
  5
394
  0
POLYLINE
  8
DOLLY
  6
CONTINUOUS
 62
     7
  5
395
 66
     1
 10
0.0
 20
0.0
 30
0.0
 70
     1
  0
VERTEX
  8
DOLLY
  6
CONTINUOUS
 62
     7
  5
396
 10
-100.0
 20
82.9789
 30
0.0
  0
VERTEX
  8
DOLLY
  6
CONTINUOUS
 62
     7
  5
397
 10
-88.0
 20
82.9789
 30
0.0
  0
VERTEX
  8
DOLLY
  6
CONTINUOUS
 62
     7
  5
398
 10
-88.0
 20
76.9789
 30
0.0
  0
VERTEX
  8
DOLLY
  6
CONTINUOUS
 62
     7
  5
399
 10
-100.0
 20
76.9789
 30
0.0
  0
SEQEND
  8
DOLLY
  6
CONTINUOUS
  5
39A
  0
POLYLINE
  8
DOLLY
  6
CONTINUOUS
 62
     7
  5
39B
 66
     1
 10
0.0
 20
0.0
 30
0.0
 70
     1
  0
VERTEX
  8
DOLLY
  6
CONTINUOUS
 62
     7
  5
39C
 10
-85.0
 20
76.9789
 30
0.0
  0
VERTEX
  8
DOLLY
  6
CONTINUOUS
 62
     7
  5
39D
 10
-85.0
 20
82.9789
 30
0.0
  0
VERTEX
  8
DOLLY
  6
CONTINUOUS
 62
     7
  5
39E
 10
-74.5
 20
82.9789
 30
0.0
  0
VERTEX
  8
DOLLY
  6
CONTINUOUS
 62
     7
  5
39F
 10
-74.5
 20
76.9789
 30
0.0
  0
SEQEND
  8
DOLLY
  6
CONTINUOUS
  5
3A0
  0
POLYLINE
  8
DOLLY
  6
CONTINUOUS
 62
     7
  5
3A1
 66
     1
 10
0.0
 20
0.0
 30
0.0
 70
     1
  0
VERTEX
  8
DOLLY
  6
CONTINUOUS
 62
     7
  5
3A2
 10
-61.0
 20
76.9789
 30
0.0
  0
VERTEX
  8
DOLLY
  6
CONTINUOUS
 62
     7
  5
3A3
 10
-71.5
 20
76.9789
 30
0.0
  0
VERTEX
  8
DOLLY
  6
CONTINUOUS
 62
     7
  5
3A4
 10
-71.5
 20
82.9789
 30
0.0
  0
VERTEX
  8
DOLLY
  6
CONTINUOUS
 62
     7
  5
3A5
 10
-61.0
 20
82.9789
 30
0.0
  0
SEQEND
  8
DOLLY
  6
CONTINUOUS
  5
3A6
  0
POLYLINE
  8
DOLLY
  6
CONTINUOUS
 62
     7
  5
3A7
 66
     1
 10
0.0
 20
0.0
 30
0.0
 70
     1
  0
VERTEX
  8
DOLLY
  6
CONTINUOUS
 62
     7
  5
3A8
 10
-46.0
 20
82.9789
 30
0.0
  0
VERTEX
  8
DOLLY
  6
CONTINUOUS
 62
     7
  5
3A9
 10
-46.0
 20
76.9789
 30
0.0
  0
VERTEX
  8
DOLLY
  6
CONTINUOUS
 62
     7
  5
3AA
 10
-58.0
 20
76.9789
 30
0.0
  0
VERTEX
  8
DOLLY
  6
CONTINUOUS
 62
     7
  5
3AB
 10
-58.0
 20
82.9789
 30
0.0
  0
SEQEND
  8
DOLLY
  6
CONTINUOUS
  5
3AC
  0
POLYLINE
  8
DOLLY
  6
CONTINUOUS
 62
     7
  5
3AD
 66
     1
 10
0.0
 20
0.0
 30
0.0
 70
     5
 75
     5
  0
VERTEX
  8
DOLLY
  6
CONTINUOUS
 62
     7
  5
3AE
 10
-103.0
 20
73.9789
 30
0.0
  0
VERTEX
  8
DOLLY
  6
CONTINUOUS
 62
     7
  5
3AF
 10
-94.0
 20
73.9789
 30
0.0
  0
VERTEX
  8
DOLLY
  6
CONTINUOUS
 62
     7
  5
3B0
 10
-94.0
 20
73.4789
 30
0.0
  0
VERTEX
  8
DOLLY
  6
CONTINUOUS
 62
     7
  5
3B1
 10
-103.0
 20
73.4789
 30
0.0
  0
SEQEND
  8
DOLLY
  6
CONTINUOUS
  5
3B2
  0
POLYLINE
  8
DOLLY
  6
CONTINUOUS
 62
     7
  5
3B3
 66
     1
 10
0.0
 20
0.0
 30
0.0
 70
     5
 75
     5
  0
VERTEX
  8
DOLLY
  6
CONTINUOUS
 62
     7
  5
3B4
 10
-52.0
 20
73.9789
 30
0.0
  0
VERTEX
  8
DOLLY
  6
CONTINUOUS
 62
     7
  5
3B5
 10
-43.0
 20
73.9789
 30
0.0
  0
VERTEX
  8
DOLLY
  6
CONTINUOUS
 62
     7
  5
3B6
 10
-43.0
 20
73.4789
 30
0.0
  0
VERTEX
  8
DOLLY
  6
CONTINUOUS
 62
     7
  5
3B7
 10
-52.0
 20
73.4789
 30
0.0
  0
SEQEND
  8
DOLLY
  6
CONTINUOUS
  5
3B8
  0
POLYLINE
  8
DOLLY
  6
CONTINUOUS
 62
     7
  5
3B9
 66
     1
 10
0.0
 20
0.0
 30
0.0
 70
     5
 75
     5
  0
VERTEX
  8
DOLLY
  6
CONTINUOUS
 62
     7
  5
3BA
 10
-88.0
 20
92.3539
 30
0.0
  0
VERTEX
  8
DOLLY
  6
CONTINUOUS
 62
     7
  5
3BB
 10
-58.0
 20
92.3539
 30
0.0
  0
VERTEX
  8
DOLLY
  6
CONTINUOUS
 62
     7
  5
3BC
 10
-58.0
 20
89.3539
 30
0.0
  0
VERTEX
  8
DOLLY
  6
CONTINUOUS
 62
     7
  5
3BD
 10
-88.0
 20
89.3539
 30
0.0
  0
SEQEND
  8
DOLLY
  6
CONTINUOUS
  5
3BE
  0
POLYLINE
  8
DOLLY
  6
CONTINUOUS
 62
     7
  5
3BF
 66
     1
 10
0.0
 20
0.0
 30
0.0
 70
     5
 75
     5
  0
VERTEX
  8
DOLLY
  6
CONTINUOUS
 62
     7
  5
3C0
 10
-88.0
 20
92.3539
 30
0.0
  0
VERTEX
  8
DOLLY
  6
CONTINUOUS
 62
     7
  5
3C1
 10
-85.0
 20
92.3539
 30
0.0
  0
VERTEX
  8
DOLLY
  6
CONTINUOUS
 62
     7
  5
3C2
 10
-85.0
 20
85.9789
 30
0.0
  0
VERTEX
  8
DOLLY
  6
CONTINUOUS
 62
     7
  5
3C3
 10
-88.0
 20
85.9789
 30
0.0
  0
SEQEND
  8
DOLLY
  6
CONTINUOUS
  5
3C4
  0
POLYLINE
  8
DOLLY
  6
CONTINUOUS
 62
     7
  5
3C5
 66
     1
 10
0.0
 20
0.0
 30
0.0
 70
     5
 75
     5
  0
VERTEX
  8
DOLLY
  6
CONTINUOUS
 62
     7
  5
3C6
 10
-74.5
 20
92.3539
 30
0.0
  0
VERTEX
  8
DOLLY
  6
CONTINUOUS
 62
     7
  5
3C7
 10
-71.5
 20
92.3539
 30
0.0
  0
VERTEX
  8
DOLLY
  6
CONTINUOUS
 62
     7
  5
3C8
 10
-71.5
 20
85.9789
 30
0.0
  0
VERTEX
  8
DOLLY
  6
CONTINUOUS
 62
     7
  5
3C9
 10
-74.5
 20
85.9789
 30
0.0
  0
SEQEND
  8
DOLLY
  6
CONTINUOUS
  5
3CA
  0
POLYLINE
  8
DOLLY
  6
CONTINUOUS
 62
     7
  5
3CB
 66
     1
 10
0.0
 20
0.0
 30
0.0
 70
     5
 75
     5
  0
VERTEX
  8
DOLLY
  6
CONTINUOUS
 62
     7
  5
3CC
 10
-61.0
 20
92.3539
 30
0.0
  0
VERTEX
  8
DOLLY
  6
CONTINUOUS
 62
     7
  5
3CD
 10
-58.0
 20
92.3539
 30
0.0
  0
VERTEX
  8
DOLLY
  6
CONTINUOUS
 62
     7
  5
3CE
 10
-58.0
 20
85.9789
 30
0.0
  0
VERTEX
  8
DOLLY
  6
CONTINUOUS
 62
     7
  5
3CF
 10
-61.0
 20
85.9789
 30
0.0
  0
SEQEND
  8
DOLLY
  6
CONTINUOUS
  5
3D0
  0
POLYLINE
  8
DOLLY
  6
CONTINUOUS
 62
     7
  5
3D1
 66
     1
 10
0.0
 20
0.0
 30
0.0
 70
     5
 75
     5
  0
VERTEX
  8
DOLLY
  6
CONTINUOUS
 62
     7
  5
3D2
 10
-97.0
 20
96.6039
 30
0.0
  0
VERTEX
  8
DOLLY
  6
CONTINUOUS
 62
     7
  5
3D3
 10
-49.0
 20
96.6039
 30
0.0
  0
VERTEX
  8
DOLLY
  6
CONTINUOUS
 62
     7
  5
3D4
 10
-49.0
 20
94.6039
 30
0.0
  0
VERTEX
  8
DOLLY
  6
CONTINUOUS
 62
     7
  5
3D5
 10
-97.0
 20
94.6039
 30
0.0
  0
SEQEND
  8
DOLLY
  6
CONTINUOUS
  5
3D6
  0
POLYLINE
  8
DOLLY
  6
CONTINUOUS
 62
     7
  5
3D7
 66
     1
 10
0.0
 20
0.0
 30
0.0
 70
     5
 75
     5
  0
VERTEX
  8
DOLLY
  6
CONTINUOUS
 62
     7
  5
3D8
 10
-76.0
 20
136.7289
 30
0.0
  0
VERTEX
  8
DOLLY
  6
CONTINUOUS
 62
     7
  5
3D9
 10
-70.0
 20
136.7289
 30
0.0
  0
VERTEX
  8
DOLLY
  6
CONTINUOUS
 62
     7
  5
3DA
 10
-70.0
 20
133.6039
 30
0.0
  0
VERTEX
  8
DOLLY
  6
CONTINUOUS
 62
     7
  5
3DB
 10
-76.0
 20
133.6039
 30
0.0
  0
SEQEND
  8
DOLLY
  6
CONTINUOUS
  5
3DC
  0
POLYLINE
  8
DOLLY
  6
CONTINUOUS
 62
     7
  5
3DD
 66
     1
 10
0.0
 20
0.0
 30
0.0
 70
     5
 75
     5
  0
VERTEX
  8
DOLLY
  6
CONTINUOUS
 62
     7
  5
3DE
 10
-76.0
 20
141.2289
 30
0.0
  0
VERTEX
  8
DOLLY
  6
CONTINUOUS
 62
     7
  5
3DF
 10
-70.0
 20
141.2289
 30
0.0
  0
VERTEX
  8
DOLLY
  6
CONTINUOUS
 62
     7
  5
3E0
 10
-70.0
 20
136.7289
 30
0.0
  0
VERTEX
  8
DOLLY
  6
CONTINUOUS
 62
     7
  5
3E1
 10
-76.0
 20
136.7289
 30
0.0
  0
SEQEND
  8
DOLLY
  6
CONTINUOUS
  5
3E2
  0
LINE
  8
DOLLY
  6
CONTINUOUS
 62
     7
  5
3E3
 10
-76.0
 20
138.9789
 30
0.0
 11
-70.0
 21
138.9789
 31
0.0
  0
CIRCLE
  8
DOLLY
  6
CONTINUOUS
 62
     7
  5
3E4
 10
-73.0
 20
138.9789
 30
0.0
 40
1.5
  0
CIRCLE
  8
DOLLY
  6
CONTINUOUS
 62
     7
  5
3E5
 10
-73.0
 20
138.9789
 30
0.0
 40
1.2451
  0
POLYLINE
  8
DOLLY
  6
CONTINUOUS
 62
     7
  5
3E6
 66
     1
 10
0.0
 20
0.0
 30
0.0
 70
     1
  0
VERTEX
  8
DOLLY
  6
CONTINUOUS
 62
     7
  5
3E7
 10
-76.0
 20
133.6039
 30
0.0
  0
VERTEX
  8
DOLLY
  6
CONTINUOUS
 62
     7
  5
3E8
 10
-76.0
 20
132.1039
 30
0.0
  0
VERTEX
  8
DOLLY
  6
CONTINUOUS
 62
     7
  5
3E9
 10
-86.5
 20
105.6039
 30
0.0
  0
VERTEX
  8
DOLLY
  6
CONTINUOUS
 62
     7
  5
3EA
 10
-83.2731
 20
105.6039
 30
0.0
  0
VERTEX
  8
DOLLY
  6
CONTINUOUS
 62
     7
  5
3EB
 10
-80.0042
 20
113.8539
 30
0.0
  0
VERTEX
  8
DOLLY
  6
CONTINUOUS
 62
     7
  5
3EC
 10
-74.5
 20
113.8539
 30
0.0
  0
VERTEX
  8
DOLLY
  6
CONTINUOUS
 62
     7
  5
3ED
 10
-74.5
 20
105.6039
 30
0.0
  0
VERTEX
  8
DOLLY
  6
CONTINUOUS
 62
     7
  5
3EE
 10
-71.5
 20
105.6039
 30
0.0
  0
VERTEX
  8
DOLLY
  6
CONTINUOUS
 62
     7
  5
3EF
 10
-71.5
 20
113.8539
 30
0.0
  0
VERTEX
  8
DOLLY
  6
CONTINUOUS
 62
     7
  5
3F0
 10
-65.9958
 20
113.8539
 30
0.0
  0
VERTEX
  8
DOLLY
  6
CONTINUOUS
 62
     7
  5
3F1
 10
-62.7269
 20
105.6039
 30
0.0
  0
VERTEX
  8
DOLLY
  6
CONTINUOUS
 62
     7
  5
3F2
 10
-59.5
 20
105.6039
 30
0.0
  0
VERTEX
  8
DOLLY
  6
CONTINUOUS
 62
     7
  5
3F3
 10
-70.0
 20
132.1039
 30
0.0
  0
VERTEX
  8
DOLLY
  6
CONTINUOUS
 62
     7
  5
3F4
 10
-70.0
 20
133.6039
 30
0.0
  0
SEQEND
  8
DOLLY
  6
CONTINUOUS
  5
3F5
  0
POLYLINE
  8
DOLLY
  6
CONTINUOUS
 62
     7
  5
3F6
 66
     1
 10
0.0
 20
0.0
 30
0.0
 70
     1
  0
VERTEX
  8
DOLLY
  6
CONTINUOUS
 62
     7
  5
3F7
 10
-71.5
 20
127.7455
 30
0.0
  0
VERTEX
  8
DOLLY
  6
CONTINUOUS
 62
     7
  5
3F8
 10
-67.1845
 20
116.8539
 30
0.0
  0
VERTEX
  8
DOLLY
  6
CONTINUOUS
 62
     7
  5
3F9
 10
-71.5
 20
116.8539
 30
0.0
  0
SEQEND
  8
DOLLY
  6
CONTINUOUS
  5
3FA
  0
POLYLINE
  8
DOLLY
  6
CONTINUOUS
 62
     7
  5
3FB
 66
     1
 10
0.0
 20
0.0
 30
0.0
 70
     1
  0
VERTEX
  8
DOLLY
  6
CONTINUOUS
 62
     7
  5
3FC
 10
-74.5
 20
127.7455
 30
0.0
  0
VERTEX
  8
DOLLY
  6
CONTINUOUS
 62
     7
  5
3FD
 10
-74.5
 20
116.8539
 30
0.0
  0
VERTEX
  8
DOLLY
  6
CONTINUOUS
 62
     7
  5
3FE
 10
-78.8156
 20
116.8539
 30
0.0
  0
SEQEND
  8
DOLLY
  6
CONTINUOUS
  5
3FF
  0
POLYLINE
  8
DOLLY
  6
CONTINUOUS
 62
     7
  5
400
 66
     1
 10
0.0
 20
0.0
 30
0.0
 70
     5
 75
     5
  0
VERTEX
  8
DOLLY
  6
CONTINUOUS
 62
     7
  5
401
 10
-86.5
 20
99.6039
 30
0.0
  0
VERTEX
  8
DOLLY
  6
CONTINUOUS
 62
     7
  5
402
 10
-59.5
 20
99.6039
 30
0.0
  0
VERTEX
  8
DOLLY
  6
CONTINUOUS
 62
     7
  5
403
 10
-59.5
 20
96.6039
 30
0.0
  0
VERTEX
  8
DOLLY
  6
CONTINUOUS
 62
     7
  5
404
 10
-86.5
 20
96.6039
 30
0.0
  0
SEQEND
  8
DOLLY
  6
CONTINUOUS
  5
405
  0
POLYLINE
  8
DOLLY
  6
CONTINUOUS
 62
     7
  5
406
 66
     1
 10
0.0
 20
0.0
 30
0.0
 70
     5
 75
     5
  0
VERTEX
  8
DOLLY
  6
CONTINUOUS
 62
     7
  5
407
 10
-86.5
 20
105.6039
 30
0.0
  0
VERTEX
  8
DOLLY
  6
CONTINUOUS
 62
     7
  5
408
 10
-59.5
 20
105.6039
 30
0.0
  0
VERTEX
  8
DOLLY
  6
CONTINUOUS
 62
     7
  5
409
 10
-59.5
 20
102.6039
 30
0.0
  0
VERTEX
  8
DOLLY
  6
CONTINUOUS
 62
     7
  5
40A
 10
-86.5
 20
102.6039
 30
0.0
  0
SEQEND
  8
DOLLY
  6
CONTINUOUS
  5
40B
  0
POLYLINE
  8
DOLLY
  6
CONTINUOUS
 62
     7
  5
40C
 66
     1
 10
0.0
 20
0.0
 30
0.0
 70
     5
 75
     5
  0
VERTEX
  8
DOLLY
  6
CONTINUOUS
 62
     7
  5
40D
 10
-86.5
 20
102.6039
 30
0.0
  0
VERTEX
  8
DOLLY
  6
CONTINUOUS
 62
     7
  5
40E
 10
-83.5
 20
102.6039
 30
0.0
  0
VERTEX
  8
DOLLY
  6
CONTINUOUS
 62
     7
  5
40F
 10
-83.5
 20
96.6039
 30
0.0
  0
VERTEX
  8
DOLLY
  6
CONTINUOUS
 62
     7
  5
410
 10
-86.5
 20
96.6039
 30
0.0
  0
SEQEND
  8
DOLLY
  6
CONTINUOUS
  5
411
  0
POLYLINE
  8
DOLLY
  6
CONTINUOUS
 62
     7
  5
412
 66
     1
 10
0.0
 20
0.0
 30
0.0
 70
     5
 75
     5
  0
VERTEX
  8
DOLLY
  6
CONTINUOUS
 62
     7
  5
413
 10
-62.5
 20
102.6039
 30
0.0
  0
VERTEX
  8
DOLLY
  6
CONTINUOUS
 62
     7
  5
414
 10
-59.5
 20
102.6039
 30
0.0
  0
VERTEX
  8
DOLLY
  6
CONTINUOUS
 62
     7
  5
415
 10
-59.5
 20
96.6039
 30
0.0
  0
VERTEX
  8
DOLLY
  6
CONTINUOUS
 62
     7
  5
416
 10
-62.5
 20
96.6039
 30
0.0
  0
SEQEND
  8
DOLLY
  6
CONTINUOUS
  5
417
  0
POLYLINE
  8
DOLLY
  6
CONTINUOUS
 62
     7
  5
418
 66
     1
 10
0.0
 20
0.0
 30
0.0
 70
     5
 75
     5
  0
VERTEX
  8
DOLLY
  6
CONTINUOUS
 62
     7
  5
419
 10
-74.5
 20
102.6039
 30
0.0
  0
VERTEX
  8
DOLLY
  6
CONTINUOUS
 62
     7
  5
41A
 10
-71.5
 20
102.6039
 30
0.0
  0
VERTEX
  8
DOLLY
  6
CONTINUOUS
 62
     7
  5
41B
 10
-71.5
 20
96.6039
 30
0.0
  0
VERTEX
  8
DOLLY
  6
CONTINUOUS
 62
     7
  5
41C
 10
-74.5
 20
96.6039
 30
0.0
  0
SEQEND
  8
DOLLY
  6
CONTINUOUS
  5
41D
  0
POLYLINE
  8
DOLLY
  6
CONTINUOUS
 62
     7
  5
41E
 66
     1
 10
0.0
 20
0.0
 30
0.0
 70
     5
 75
     5
  0
VERTEX
  8
DOLLY
  6
CONTINUOUS
 62
     7
  5
41F
 10
-52.0
 20
73.4789
 30
0.0
  0
VERTEX
  8
DOLLY
  6
CONTINUOUS
 62
     7
  5
420
 10
-43.0
 20
73.4789
 30
0.0
  0
VERTEX
  8
DOLLY
  6
CONTINUOUS
 62
     7
  5
421
 10
-43.0
 20
70.4789
 30
0.0
  0
VERTEX
  8
DOLLY
  6
CONTINUOUS
 62
     7
  5
422
 10
-52.0
 20
70.4789
 30
0.0
  0
SEQEND
  8
DOLLY
  6
CONTINUOUS
  5
423
  0
LINE
  8
DOLLY
  6
CONTINUOUS
 62
     7
  5
424
 10
-43.0
 20
72.9789
 30
0.0
 11
-52.0
 21
72.9789
 31
0.0
  0
LINE
  8
DOLLY
  6
CONTINUOUS
 62
     7
  5
425
 10
-43.0
 20
70.9789
 30
0.0
 11
-52.0
 21
70.9789
 31
0.0
  0
POLYLINE
  8
DOLLY
  6
CONTINUOUS
 62
     7
  5
426
 66
     1
 10
0.0
 20
0.0
 30
0.0
 70
     5
 75
     5
  0
VERTEX
  8
DOLLY
  6
CONTINUOUS
 62
     7
  5
427
 10
-43.75
 20
73.4789
 30
0.0
  0
VERTEX
  8
DOLLY
  6
CONTINUOUS
 62
     7
  5
428
 10
-51.25
 20
73.4789
 30
0.0
  0
VERTEX
  8
DOLLY
  6
CONTINUOUS
 62
     7
  5
429
 10
-51.25
 20
72.9789
 30
0.0
  0
VERTEX
  8
DOLLY
  6
CONTINUOUS
 62
     7
  5
42A
 10
-50.75
 20
72.4789
 30
0.0
  0
VERTEX
  8
DOLLY
  6
CONTINUOUS
 62
     7
  5
42B
 10
-44.25
 20
72.4789
 30
0.0
  0
VERTEX
  8
DOLLY
  6
CONTINUOUS
 62
     7
  5
42C
 10
-43.75
 20
72.9789
 30
0.0
  0
SEQEND
  8
DOLLY
  6
CONTINUOUS
  5
42D
  0
CIRCLE
  8
DOLLY
  6
CONTINUOUS
 62
     7
  5
42E
 10
-50.0
 20
72.9789
 30
0.0
 40
0.25
  0
CIRCLE
  8
DOLLY
  6
CONTINUOUS
 62
     7
  5
42F
 10
-45.0
 20
72.9789
 30
0.0
 40
0.25
  0
POLYLINE
  8
DOLLY
  6
CONTINUOUS
 62
     7
  5
430
 66
     1
 10
0.0
 20
0.0
 30
0.0
 70
     5
 75
     5
  0
VERTEX
  8
DOLLY
  6
CONTINUOUS
 62
     7
  5
431
 10
-103.0
 20
73.4789
 30
0.0
  0
VERTEX
  8
DOLLY
  6
CONTINUOUS
 62
     7
  5
432
 10
-94.0
 20
73.4789
 30
0.0
  0
VERTEX
  8
DOLLY
  6
CONTINUOUS
 62
     7
  5
433
 10
-94.0
 20
70.4789
 30
0.0
  0
VERTEX
  8
DOLLY
  6
CONTINUOUS
 62
     7
  5
434
 10
-103.0
 20
70.4789
 30
0.0
  0
SEQEND
  8
DOLLY
  6
CONTINUOUS
  5
435
  0
LINE
  8
DOLLY
  6
CONTINUOUS
 62
     7
  5
436
 10
-103.0
 20
72.9789
 30
0.0
 11
-94.0
 21
72.9789
 31
0.0
  0
LINE
  8
DOLLY
  6
CONTINUOUS
 62
     7
  5
437
 10
-103.0
 20
70.9789
 30
0.0
 11
-94.0
 21
70.9789
 31
0.0
  0
POLYLINE
  8
DOLLY
  6
CONTINUOUS
 62
     7
  5
438
 66
     1
 10
0.0
 20
0.0
 30
0.0
 70
     5
 75
     5
  0
VERTEX
  8
DOLLY
  6
CONTINUOUS
 62
     7
  5
439
 10
-102.25
 20
73.4789
 30
0.0
  0
VERTEX
  8
DOLLY
  6
CONTINUOUS
 62
     7
  5
43A
 10
-94.75
 20
73.4789
 30
0.0
  0
VERTEX
  8
DOLLY
  6
CONTINUOUS
 62
     7
  5
43B
 10
-94.75
 20
72.9789
 30
0.0
  0
VERTEX
  8
DOLLY
  6
CONTINUOUS
 62
     7
  5
43C
 10
-95.25
 20
72.4789
 30
0.0
  0
VERTEX
  8
DOLLY
  6
CONTINUOUS
 62
     7
  5
43D
 10
-101.75
 20
72.4789
 30
0.0
  0
VERTEX
  8
DOLLY
  6
CONTINUOUS
 62
     7
  5
43E
 10
-102.25
 20
72.9789
 30
0.0
  0
SEQEND
  8
DOLLY
  6
CONTINUOUS
  5
43F
  0
CIRCLE
  8
DOLLY
  6
CONTINUOUS
 62
     7
  5
440
 10
-96.0
 20
72.9789
 30
0.0
 40
0.25
  0
CIRCLE
  8
DOLLY
  6
CONTINUOUS
 62
     7
  5
441
 10
-101.0
 20
72.9789
 30
0.0
 40
0.25
  0
POLYLINE
  8
DOLLY
  6
CONTINUOUS
 62
     7
  5
442
 66
     1
 10
0.0
 20
0.0
 30
0.0
 70
     5
 75
     5
  0
VERTEX
  8
DOLLY
  6
CONTINUOUS
 62
     7
  5
443
 10
-87.75
 20
92.7289
 30
0.0
  0
VERTEX
  8
DOLLY
  6
CONTINUOUS
 62
     7
  5
444
 10
-58.25
 20
92.7289
 30
0.0
  0
VERTEX
  8
DOLLY
  6
CONTINUOUS
 62
     7
  5
445
 10
-58.25
 20
92.3539
 30
0.0
  0
VERTEX
  8
DOLLY
  6
CONTINUOUS
 62
     7
  5
446
 10
-87.75
 20
92.3539
 30
0.0
  0
SEQEND
  8
DOLLY
  6
CONTINUOUS
  5
447
  0
POLYLINE
  8
DOLLY
  6
CONTINUOUS
 62
     7
  5
448
 66
     1
 10
0.0
 20
0.0
 30
0.0
 70
     5
 75
     5
  0
VERTEX
  8
DOLLY
  6
CONTINUOUS
 62
     7
  5
449
 10
-86.5
 20
94.2289
 30
0.0
  0
VERTEX
  8
DOLLY
  6
CONTINUOUS
 62
     7
  5
44A
 10
-59.5
 20
94.2289
 30
0.0
  0
VERTEX
  8
DOLLY
  6
CONTINUOUS
 62
     7
  5
44B
 10
-59.5
 20
92.7289
 30
0.0
  0
VERTEX
  8
DOLLY
  6
CONTINUOUS
 62
     7
  5
44C
 10
-86.5
 20
92.7289
 30
0.0
  0
SEQEND
  8
DOLLY
  6
CONTINUOUS
  5
44D
  0
POLYLINE
  8
DOLLY
  6
CONTINUOUS
 62
     7
  5
44E
 66
     1
 10
0.0
 20
0.0
 30
0.0
 70
     5
 75
     5
  0
VERTEX
  8
DOLLY
  6
CONTINUOUS
 62
     7
  5
44F
 10
-85.75
 20
94.6039
 30
0.0
  0
VERTEX
  8
DOLLY
  6
CONTINUOUS
 62
     7
  5
450
 10
-60.25
 20
94.6039
 30
0.0
  0
VERTEX
  8
DOLLY
  6
CONTINUOUS
 62
     7
  5
451
 10
-60.25
 20
94.2289
 30
0.0
  0
VERTEX
  8
DOLLY
  6
CONTINUOUS
 62
     7
  5
452
 10
-85.75
 20
94.2289
 30
0.0
  0
SEQEND
  8
DOLLY
  6
CONTINUOUS
  5
453
  0
POLYLINE
  8
DOLLY
  6
CONTINUOUS
 62
     7
  5
454
 66
     1
 10
0.0
 20
0.0
 30
0.0
 70
     5
 75
     5
  0
VERTEX
  8
DOLLY
  6
CONTINUOUS
 62
     7
  5
455
 10
-115.0
 20
36.4789
 30
0.0
  0
VERTEX
  8
DOLLY
  6
CONTINUOUS
 62
     7
  5
456
 10
-106.0
 20
36.4789
 30
0.0
  0
VERTEX
  8
DOLLY
  6
CONTINUOUS
 62
     7
  5
457
 10
-106.0
 20
33.4789
 30
0.0
  0
VERTEX
  8
DOLLY
  6
CONTINUOUS
 62
     7
  5
458
 10
-115.0
 20
33.4789
 30
0.0
  0
SEQEND
  8
DOLLY
  6
CONTINUOUS
  5
459
  0
LINE
  8
DOLLY
  6
CONTINUOUS
 62
     7
  5
45A
 10
-115.0
 20
35.9789
 30
0.0
 11
-106.0
 21
35.9789
 31
0.0
  0
LINE
  8
DOLLY
  6
CONTINUOUS
 62
     7
  5
45B
 10
-115.0
 20
33.9789
 30
0.0
 11
-106.0
 21
33.9789
 31
0.0
  0
POLYLINE
  8
DOLLY
  6
CONTINUOUS
 62
     7
  5
45C
 66
     1
 10
0.0
 20
0.0
 30
0.0
 70
     5
 75
     5
  0
VERTEX
  8
DOLLY
  6
CONTINUOUS
 62
     7
  5
45D
 10
-114.25
 20
36.4789
 30
0.0
  0
VERTEX
  8
DOLLY
  6
CONTINUOUS
 62
     7
  5
45E
 10
-106.75
 20
36.4789
 30
0.0
  0
VERTEX
  8
DOLLY
  6
CONTINUOUS
 62
     7
  5
45F
 10
-106.75
 20
35.9789
 30
0.0
  0
VERTEX
  8
DOLLY
  6
CONTINUOUS
 62
     7
  5
460
 10
-107.25
 20
35.4789
 30
0.0
  0
VERTEX
  8
DOLLY
  6
CONTINUOUS
 62
     7
  5
461
 10
-113.75
 20
35.4789
 30
0.0
  0
VERTEX
  8
DOLLY
  6
CONTINUOUS
 62
     7
  5
462
 10
-114.25
 20
35.9789
 30
0.0
  0
SEQEND
  8
DOLLY
  6
CONTINUOUS
  5
463
  0
CIRCLE
  8
DOLLY
  6
CONTINUOUS
 62
     7
  5
464
 10
-108.0
 20
35.9789
 30
0.0
 40
0.25
  0
CIRCLE
  8
DOLLY
  6
CONTINUOUS
 62
     7
  5
465
 10
-113.0
 20
35.9789
 30
0.0
 40
0.25
  0
POLYLINE
  8
DOLLY
  6
CONTINUOUS
 62
     7
  5
466
 66
     1
 10
0.0
 20
0.0
 30
0.0
 70
     5
 75
     5
  0
VERTEX
  8
DOLLY
  6
CONTINUOUS
 62
     7
  5
467
 10
-40.0
 20
36.4789
 30
0.0
  0
VERTEX
  8
DOLLY
  6
CONTINUOUS
 62
     7
  5
468
 10
-31.0
 20
36.4789
 30
0.0
  0
VERTEX
  8
DOLLY
  6
CONTINUOUS
 62
     7
  5
469
 10
-31.0
 20
33.4789
 30
0.0
  0
VERTEX
  8
DOLLY
  6
CONTINUOUS
 62
     7
  5
46A
 10
-40.0
 20
33.4789
 30
0.0
  0
SEQEND
  8
DOLLY
  6
CONTINUOUS
  5
46B
  0
LINE
  8
DOLLY
  6
CONTINUOUS
 62
     7
  5
46C
 10
-31.0
 20
35.9789
 30
0.0
 11
-40.0
 21
35.9789
 31
0.0
  0
LINE
  8
DOLLY
  6
CONTINUOUS
 62
     7
  5
46D
 10
-31.0
 20
33.9789
 30
0.0
 11
-40.0
 21
33.9789
 31
0.0
  0
POLYLINE
  8
DOLLY
  6
CONTINUOUS
 62
     7
  5
46E
 66
     1
 10
0.0
 20
0.0
 30
0.0
 70
     5
 75
     5
  0
VERTEX
  8
DOLLY
  6
CONTINUOUS
 62
     7
  5
46F
 10
-31.75
 20
36.4789
 30
0.0
  0
VERTEX
  8
DOLLY
  6
CONTINUOUS
 62
     7
  5
470
 10
-39.25
 20
36.4789
 30
0.0
  0
VERTEX
  8
DOLLY
  6
CONTINUOUS
 62
     7
  5
471
 10
-39.25
 20
35.9789
 30
0.0
  0
VERTEX
  8
DOLLY
  6
CONTINUOUS
 62
     7
  5
472
 10
-38.75
 20
35.4789
 30
0.0
  0
VERTEX
  8
DOLLY
  6
CONTINUOUS
 62
     7
  5
473
 10
-32.25
 20
35.4789
 30
0.0
  0
VERTEX
  8
DOLLY
  6
CONTINUOUS
 62
     7
  5
474
 10
-31.75
 20
35.9789
 30
0.0
  0
SEQEND
  8
DOLLY
  6
CONTINUOUS
  5
475
  0
CIRCLE
  8
DOLLY
  6
CONTINUOUS
 62
     7
  5
476
 10
-38.0
 20
35.9789
 30
0.0
 40
0.25
  0
CIRCLE
  8
DOLLY
  6
CONTINUOUS
 62
     7
  5
477
 10
-33.0
 20
35.9789
 30
0.0
 40
0.25
  0
POLYLINE
  8
DOLLY
  6
CONTINUOUS
 62
     7
  5
478
 66
     1
 10
0.0
 20
0.0
 30
0.0
 70
     1
  0
VERTEX
  8
DOLLY
  6
CONTINUOUS
 62
     7
  5
479
 10
-43.0
 20
48.9789
 30
0.0
  0
VERTEX
  8
DOLLY
  6
CONTINUOUS
 62
     7
  5
47A
 10
-103.0
 20
48.9789
 30
0.0
  0
VERTEX
  8
DOLLY
  6
CONTINUOUS
 62
     7
  5
47B
 10
-103.0
 20
60.9789
 30
0.0
  0
VERTEX
  8
DOLLY
  6
CONTINUOUS
 62
     7
  5
47C
 10
-103.0
 20
72.9789
 30
0.0
  0
VERTEX
  8
DOLLY
  6
CONTINUOUS
 62
     7
  5
47D
 10
-43.0
 20
72.9789
 30
0.0
  0
VERTEX
  8
DOLLY
  6
CONTINUOUS
 62
     7
  5
47E
 10
-43.0
 20
60.9789
 30
0.0
  0
SEQEND
  8
DOLLY
  6
CONTINUOUS
  5
47F
  0
POLYLINE
  8
DOLLY
  6
CONTINUOUS
 62
     7
  5
480
 66
     1
 10
0.0
 20
0.0
 30
0.0
 70
     1
  0
VERTEX
  8
DOLLY
  6
CONTINUOUS
 62
     7
  5
481
 10
-100.0
 20
59.4789
 30
0.0
  0
VERTEX
  8
DOLLY
  6
CONTINUOUS
 62
     7
  5
482
 10
-100.0
 20
51.9789
 30
0.0
  0
VERTEX
  8
DOLLY
  6
CONTINUOUS
 62
     7
  5
483
 10
-88.0
 20
51.9789
 30
0.0
  0
VERTEX
  8
DOLLY
  6
CONTINUOUS
 62
     7
  5
484
 10
-88.0
 20
59.4789
 30
0.0
  0
SEQEND
  8
DOLLY
  6
CONTINUOUS
  5
485
  0
POLYLINE
  8
DOLLY
  6
CONTINUOUS
 62
     7
  5
486
 66
     1
 10
0.0
 20
0.0
 30
0.0
 70
     1
  0
VERTEX
  8
DOLLY
  6
CONTINUOUS
 62
     7
  5
487
 10
-85.0
 20
51.9789
 30
0.0
  0
VERTEX
  8
DOLLY
  6
CONTINUOUS
 62
     7
  5
488
 10
-74.5
 20
51.9789
 30
0.0
  0
VERTEX
  8
DOLLY
  6
CONTINUOUS
 62
     7
  5
489
 10
-74.5
 20
59.4789
 30
0.0
  0
VERTEX
  8
DOLLY
  6
CONTINUOUS
 62
     7
  5
48A
 10
-85.0
 20
59.4789
 30
0.0
  0
SEQEND
  8
DOLLY
  6
CONTINUOUS
  5
48B
  0
POLYLINE
  8
DOLLY
  6
CONTINUOUS
 62
     7
  5
48C
 66
     1
 10
0.0
 20
0.0
 30
0.0
 70
     1
  0
VERTEX
  8
DOLLY
  6
CONTINUOUS
 62
     7
  5
48D
 10
-61.0
 20
51.9789
 30
0.0
  0
VERTEX
  8
DOLLY
  6
CONTINUOUS
 62
     7
  5
48E
 10
-61.0
 20
59.4789
 30
0.0
  0
VERTEX
  8
DOLLY
  6
CONTINUOUS
 62
     7
  5
48F
 10
-71.5
 20
59.4789
 30
0.0
  0
VERTEX
  8
DOLLY
  6
CONTINUOUS
 62
     7
  5
490
 10
-71.5
 20
51.9789
 30
0.0
  0
SEQEND
  8
DOLLY
  6
CONTINUOUS
  5
491
  0
POLYLINE
  8
DOLLY
  6
CONTINUOUS
 62
     7
  5
492
 66
     1
 10
0.0
 20
0.0
 30
0.0
 70
     1
  0
VERTEX
  8
DOLLY
  6
CONTINUOUS
 62
     7
  5
493
 10
-46.0
 20
59.4789
 30
0.0
  0
VERTEX
  8
DOLLY
  6
CONTINUOUS
 62
     7
  5
494
 10
-58.0
 20
59.4789
 30
0.0
  0
VERTEX
  8
DOLLY
  6
CONTINUOUS
 62
     7
  5
495
 10
-58.0
 20
51.9789
 30
0.0
  0
VERTEX
  8
DOLLY
  6
CONTINUOUS
 62
     7
  5
496
 10
-46.0
 20
51.9789
 30
0.0
  0
SEQEND
  8
DOLLY
  6
CONTINUOUS
  5
497
  0
POLYLINE
  8
DOLLY
  6
CONTINUOUS
 62
     7
  5
498
 66
     1
 10
0.0
 20
0.0
 30
0.0
 70
     1
  0
VERTEX
  8
DOLLY
  6
CONTINUOUS
 62
     7
  5
499
 10
-100.0
 20
69.9789
 30
0.0
  0
VERTEX
  8
DOLLY
  6
CONTINUOUS
 62
     7
  5
49A
 10
-100.0
 20
62.4789
 30
0.0
  0
VERTEX
  8
DOLLY
  6
CONTINUOUS
 62
     7
  5
49B
 10
-88.0
 20
62.4789
 30
0.0
  0
VERTEX
  8
DOLLY
  6
CONTINUOUS
 62
     7
  5
49C
 10
-88.0
 20
69.9789
 30
0.0
  0
SEQEND
  8
DOLLY
  6
CONTINUOUS
  5
49D
  0
POLYLINE
  8
DOLLY
  6
CONTINUOUS
 62
     7
  5
49E
 66
     1
 10
0.0
 20
0.0
 30
0.0
 70
     1
  0
VERTEX
  8
DOLLY
  6
CONTINUOUS
 62
     7
  5
49F
 10
-85.0
 20
62.4789
 30
0.0
  0
VERTEX
  8
DOLLY
  6
CONTINUOUS
 62
     7
  5
4A0
 10
-74.5
 20
62.4789
 30
0.0
  0
VERTEX
  8
DOLLY
  6
CONTINUOUS
 62
     7
  5
4A1
 10
-74.5
 20
69.9789
 30
0.0
  0
VERTEX
  8
DOLLY
  6
CONTINUOUS
 62
     7
  5
4A2
 10
-85.0
 20
69.9789
 30
0.0
  0
SEQEND
  8
DOLLY
  6
CONTINUOUS
  5
4A3
  0
POLYLINE
  8
DOLLY
  6
CONTINUOUS
 62
     7
  5
4A4
 66
     1
 10
0.0
 20
0.0
 30
0.0
 70
     1
  0
VERTEX
  8
DOLLY
  6
CONTINUOUS
 62
     7
  5
4A5
 10
-61.0
 20
62.4789
 30
0.0
  0
VERTEX
  8
DOLLY
  6
CONTINUOUS
 62
     7
  5
4A6
 10
-61.0
 20
69.9789
 30
0.0
  0
VERTEX
  8
DOLLY
  6
CONTINUOUS
 62
     7
  5
4A7
 10
-71.5
 20
69.9789
 30
0.0
  0
VERTEX
  8
DOLLY
  6
CONTINUOUS
 62
     7
  5
4A8
 10
-71.5
 20
62.4789
 30
0.0
  0
SEQEND
  8
DOLLY
  6
CONTINUOUS
  5
4A9
  0
POLYLINE
  8
DOLLY
  6
CONTINUOUS
 62
     7
  5
4AA
 66
     1
 10
0.0
 20
0.0
 30
0.0
 70
     1
  0
VERTEX
  8
DOLLY
  6
CONTINUOUS
 62
     7
  5
4AB
 10
-46.0
 20
69.9789
 30
0.0
  0
VERTEX
  8
DOLLY
  6
CONTINUOUS
 62
     7
  5
4AC
 10
-58.0
 20
69.9789
 30
0.0
  0
VERTEX
  8
DOLLY
  6
CONTINUOUS
 62
     7
  5
4AD
 10
-58.0
 20
62.4789
 30
0.0
  0
VERTEX
  8
DOLLY
  6
CONTINUOUS
 62
     7
  5
4AE
 10
-46.0
 20
62.4789
 30
0.0
  0
SEQEND
  8
DOLLY
  6
CONTINUOUS
  5
4AF
  0
POLYLINE
  8
DOLLY
  6
CONTINUOUS
 62
     7
  5
4B0
 66
     1
 10
0.0
 20
0.0
 30
0.0
 70
     1
  0
VERTEX
  8
DOLLY
  6
CONTINUOUS
 62
     7
  5
4B1
 10
-31.0
 20
48.9789
 30
0.0
  0
VERTEX
  8
DOLLY
  6
CONTINUOUS
 62
     7
  5
4B2
 10
-115.0
 20
48.9789
 30
0.0
  0
VERTEX
  8
DOLLY
  6
CONTINUOUS
 62
     7
  5
4B3
 10
-115.0
 20
36.9789
 30
0.0
  0
VERTEX
  8
DOLLY
  6
CONTINUOUS
 62
     7
  5
4B4
 10
-31.0
 20
36.9789
 30
0.0
  0
SEQEND
  8
DOLLY
  6
CONTINUOUS
  5
4B5
  0
POLYLINE
  8
DOLLY
  6
CONTINUOUS
 62
     7
  5
4B6
 66
     1
 10
0.0
 20
0.0
 30
0.0
 70
     1
  0
VERTEX
  8
DOLLY
  6
CONTINUOUS
 62
     7
  5
4B7
 10
-74.5
 20
39.9789
 30
0.0
  0
VERTEX
  8
DOLLY
  6
CONTINUOUS
 62
     7
  5
4B8
 10
-85.0
 20
39.9789
 30
0.0
  0
VERTEX
  8
DOLLY
  6
CONTINUOUS
 62
     7
  5
4B9
 10
-85.0
 20
45.9789
 30
0.0
  0
VERTEX
  8
DOLLY
  6
CONTINUOUS
 62
     7
  5
4BA
 10
-74.5
 20
45.9789
 30
0.0
  0
SEQEND
  8
DOLLY
  6
CONTINUOUS
  5
4BB
  0
POLYLINE
  8
DOLLY
  6
CONTINUOUS
 62
     7
  5
4BC
 66
     1
 10
0.0
 20
0.0
 30
0.0
 70
     1
  0
VERTEX
  8
DOLLY
  6
CONTINUOUS
 62
     7
  5
4BD
 10
-88.0
 20
45.9789
 30
0.0
  0
VERTEX
  8
DOLLY
  6
CONTINUOUS
 62
     7
  5
4BE
 10
-88.0
 20
39.9789
 30
0.0
  0
VERTEX
  8
DOLLY
  6
CONTINUOUS
 62
     7
  5
4BF
 10
-100.0
 20
39.9789
 30
0.0
  0
VERTEX
  8
DOLLY
  6
CONTINUOUS
 62
     7
  5
4C0
 10
-100.0
 20
45.9789
 30
0.0
  0
SEQEND
  8
DOLLY
  6
CONTINUOUS
  5
4C1
  0
POLYLINE
  8
DOLLY
  6
CONTINUOUS
 62
     7
  5
4C2
 66
     1
 10
0.0
 20
0.0
 30
0.0
 70
     1
  0
VERTEX
  8
DOLLY
  6
CONTINUOUS
 62
     7
  5
4C3
 10
-112.0
 20
45.9789
 30
0.0
  0
VERTEX
  8
DOLLY
  6
CONTINUOUS
 62
     7
  5
4C4
 10
-103.0
 20
45.9789
 30
0.0
  0
VERTEX
  8
DOLLY
  6
CONTINUOUS
 62
     7
  5
4C5
 10
-103.0
 20
39.9789
 30
0.0
  0
VERTEX
  8
DOLLY
  6
CONTINUOUS
 62
     7
  5
4C6
 10
-112.0
 20
39.9789
 30
0.0
  0
SEQEND
  8
DOLLY
  6
CONTINUOUS
  5
4C7
  0
POLYLINE
  8
DOLLY
  6
CONTINUOUS
 62
     7
  5
4C8
 66
     1
 10
0.0
 20
0.0
 30
0.0
 70
     1
  0
VERTEX
  8
DOLLY
  6
CONTINUOUS
 62
     7
  5
4C9
 10
-43.0
 20
39.9789
 30
0.0
  0
VERTEX
  8
DOLLY
  6
CONTINUOUS
 62
     7
  5
4CA
 10
-43.0
 20
45.9789
 30
0.0
  0
VERTEX
  8
DOLLY
  6
CONTINUOUS
 62
     7
  5
4CB
 10
-34.0
 20
45.9789
 30
0.0
  0
VERTEX
  8
DOLLY
  6
CONTINUOUS
 62
     7
  5
4CC
 10
-34.0
 20
39.9789
 30
0.0
  0
SEQEND
  8
DOLLY
  6
CONTINUOUS
  5
4CD
  0
POLYLINE
  8
DOLLY
  6
CONTINUOUS
 62
     7
  5
4CE
 66
     1
 10
0.0
 20
0.0
 30
0.0
 70
     1
  0
VERTEX
  8
DOLLY
  6
CONTINUOUS
 62
     7
  5
4CF
 10
-46.0
 20
39.9789
 30
0.0
  0
VERTEX
  8
DOLLY
  6
CONTINUOUS
 62
     7
  5
4D0
 10
-58.0
 20
39.9789
 30
0.0
  0
VERTEX
  8
DOLLY
  6
CONTINUOUS
 62
     7
  5
4D1
 10
-58.0
 20
45.9789
 30
0.0
  0
VERTEX
  8
DOLLY
  6
CONTINUOUS
 62
     7
  5
4D2
 10
-46.0
 20
45.9789
 30
0.0
  0
SEQEND
  8
DOLLY
  6
CONTINUOUS
  5
4D3
  0
POLYLINE
  8
DOLLY
  6
CONTINUOUS
 62
     7
  5
4D4
 66
     1
 10
0.0
 20
0.0
 30
0.0
 70
     1
  0
VERTEX
  8
DOLLY
  6
CONTINUOUS
 62
     7
  5
4D5
 10
-61.0
 20
45.9789
 30
0.0
  0
VERTEX
  8
DOLLY
  6
CONTINUOUS
 62
     7
  5
4D6
 10
-61.0
 20
39.9789
 30
0.0
  0
VERTEX
  8
DOLLY
  6
CONTINUOUS
 62
     7
  5
4D7
 10
-71.5
 20
39.9789
 30
0.0
  0
VERTEX
  8
DOLLY
  6
CONTINUOUS
 62
     7
  5
4D8
 10
-71.5
 20
45.9789
 30
0.0
  0
SEQEND
  8
DOLLY
  6
CONTINUOUS
  5
4D9
  0
POLYLINE
  8
DOLLY
  6
CONTINUOUS
 62
     7
  5
4DA
 66
     1
 10
0.0
 20
0.0
 30
0.0
 70
     5
 75
     5
  0
VERTEX
  8
DOLLY
  6
CONTINUOUS
 62
     7
  5
4DB
 10
-40.0
 20
36.9789
 30
0.0
  0
VERTEX
  8
DOLLY
  6
CONTINUOUS
 62
     7
  5
4DC
 10
-31.0
 20
36.9789
 30
0.0
  0
VERTEX
  8
DOLLY
  6
CONTINUOUS
 62
     7
  5
4DD
 10
-31.0
 20
36.4789
 30
0.0
  0
VERTEX
  8
DOLLY
  6
CONTINUOUS
 62
     7
  5
4DE
 10
-40.0
 20
36.4789
 30
0.0
  0
SEQEND
  8
DOLLY
  6
CONTINUOUS
  5
4DF
  0
POLYLINE
  8
DOLLY
  6
CONTINUOUS
 62
     7
  5
4E0
 66
     1
 10
0.0
 20
0.0
 30
0.0
 70
     5
 75
     5
  0
VERTEX
  8
DOLLY
  6
CONTINUOUS
 62
     7
  5
4E1
 10
-115.0
 20
36.9789
 30
0.0
  0
VERTEX
  8
DOLLY
  6
CONTINUOUS
 62
     7
  5
4E2
 10
-106.0
 20
36.9789
 30
0.0
  0
VERTEX
  8
DOLLY
  6
CONTINUOUS
 62
     7
  5
4E3
 10
-106.0
 20
36.4789
 30
0.0
  0
VERTEX
  8
DOLLY
  6
CONTINUOUS
 62
     7
  5
4E4
 10
-115.0
 20
36.4789
 30
0.0
  0
SEQEND
  8
DOLLY
  6
CONTINUOUS
  5
4E5
  0
POLYLINE
  8
DOLLY
  6
CONTINUOUS
 62
     7
  5
4E6
 66
     1
 10
0.0
 20
0.0
 30
0.0
 70
     5
 75
     5
  0
VERTEX
  8
DOLLY
  6
CONTINUOUS
 62
     7
  5
4E7
 10
-103.0
 20
73.4789
 30
0.0
  0
VERTEX
  8
DOLLY
  6
CONTINUOUS
 62
     7
  5
4E8
 10
-94.0
 20
73.4789
 30
0.0
  0
VERTEX
  8
DOLLY
  6
CONTINUOUS
 62
     7
  5
4E9
 10
-94.0
 20
72.9789
 30
0.0
  0
VERTEX
  8
DOLLY
  6
CONTINUOUS
 62
     7
  5
4EA
 10
-103.0
 20
72.9789
 30
0.0
  0
SEQEND
  8
DOLLY
  6
CONTINUOUS
  5
4EB
  0
POLYLINE
  8
DOLLY
  6
CONTINUOUS
 62
     7
  5
4EC
 66
     1
 10
0.0
 20
0.0
 30
0.0
 70
     5
 75
     5
  0
VERTEX
  8
DOLLY
  6
CONTINUOUS
 62
     7
  5
4ED
 10
-52.0
 20
73.4789
 30
0.0
  0
VERTEX
  8
DOLLY
  6
CONTINUOUS
 62
     7
  5
4EE
 10
-43.0
 20
73.4789
 30
0.0
  0
VERTEX
  8
DOLLY
  6
CONTINUOUS
 62
     7
  5
4EF
 10
-43.0
 20
72.9789
 30
0.0
  0
VERTEX
  8
DOLLY
  6
CONTINUOUS
 62
     7
  5
4F0
 10
-52.0
 20
72.9789
 30
0.0
  0
SEQEND
  8
DOLLY
  6
CONTINUOUS
  5
4F1
  0
ENDSEC
  0
EOF
